Cabrerra Ryan - Last Night Chords & Tabs

 

Last Night Chords & Tabs

Cabrerra Ryan Chords & Tabs

Version: 1 Type: Tab 0 ratings
1 star 2 stars 3 stars 4 stars 5 stars
comments

Last Night Tab

Capo on first fret!!!
(Tab relative to capo)

Intro x2
E -----------------------------------------------------------------------------------------------------
B -----------------------------------------------------------------------------------------------------
G -----------------------------------------------------------------------------------------------------
D -----------------------------------------------------------------------------------------------------
A -----6-----5----3-----4------6---------3---------------------------------------------------------
E --4-----4----4-----4-----4------12/4------------------------------------------------------------
[ Tab from: http://www.guitartabs.cc/tabs/c/cabrerra_ryan/last_night_tab.html ]
Verse x4
E -----------------------------------------------------------------------------------------------------
B -----------------------------------------------------------------------------------------------------
G -----------------------------------------------------------------------------------------------------
D -----------------------------------------------------------------------------------------------------
A ------6------5-----3------4-----6----------3-----------------------------------------------------
E ---4----4------4-------4-----4-----12/4---------------------------------------------------------

Pre-Chorus x7
E ----3--3--3----------3--3--3--3-----------------------------------------------------------------
B ----0--0--0----------0--0--0--0------------------------------------------------------------------
G ----0--0--0----------0--0--0--0-----------------------------------------------------------------
D ----0--0--0----------2--2--2--2---------------------------------------------------------------
A ----2--2--2----------3--3--3--3-------------------------------------------------------------
E ----3--3--3----------0--0--0--0-----------------------------------------------------------

Chorus x2  then end chorus on G
E ----3--3--3--3-------3--3--3--3----------3--3--3--3------3--3--3--3------------------
B ----0--0--0--0-------0--0--0--0----------0--0--0--0-------0--0--0--0-----------------
G ----0--0--0--0-x2---0--0--0--0--x2----2--2--2--2--x2---0--0--0--0---x2----------
D ----0--0--0--0-------2--2--2--2----------0--0--0--0--------2--2--2--2----------------
A ----2--2--2--2-------3--3--3--3----------0--0--0--0--------2--2--2--2-----------------
E ----3--3--3--3-------0--0--0--0----------2--2--2--2--------0--0--0--0-----------------

Repeat verse
Repeat pre-chorus
Repeat chorus
(Repeat chorus for bridge)
Repeat chorus 
End on G
Comments