Cabezones - Globo Chords & Tabs

 

Globo Chords & Tabs

Cabezones Chords & Tabs

Version: 1 Type: Tab 0 ratings
1 star 2 stars 3 stars 4 stars 5 stars
comments

Globo Tab

Cabezones - Globo
Album: Eclipse (sol)
Escrito por Agustin Veneziano

Intro:

E---------------------------------------------------------------------|
b---------------------------------------------------------------------|
g---------------------------------------------------------------------|
d--2-2--0-4-2----4-4-4-7-7--------------------------------------------|
a--2-2--0-4-2----4-4-4-7-7----y repite--------------------------------|
d--2-2--0-4-2----4-4-4-7-7--------------------------------------------|

Estribillo:
[ Tab from: http://www.guitartabs.cc/tabs/c/cabezones/globo_tab.html ]
E------------------------------------------------------------------|
b------------------------------------------------------------------|
g------------------------------------------------------------------|
d--999999/44444\10101010/6666--7-----------------------------------|
a--777777/22222\8-8-8-8-/4444--5-----------------------------------|
d------------------------------------------------------------------|

Aca les doy una base de veces, calculen ustedes cuantas veces hay que tocar.

En la parte de "Acuerdate de mi..."

E---------------------------|
b---------------------------| 
g---------------------------|y repite
d--4-4--7-7--------3200-----|
a--4-4--7-7--------3200-----|
d--4-4--7-7--------3200-----|

en esta parte no estoy muy seguro de que sea asi

Bueno espero que les guste.

Si quieren mandar mails por arreglos de la cancion, boludeses, etc. es
corajeelperrocobarde@datafull.com
Comments