Byrds - Turn Turn Turn Chords & Tabs

 

Turn Turn Turn Chords & Tabs

Byrds Chords & Tabs

Version: 4 Type: Tab 0 ratings
1 star 2 stars 3 stars 4 stars 5 stars
comments

Turn Turn Turn Tab

   
Turn Turn Turn
by the Byrds
(words taken from Ecclesiasties 3:1-9)

----------------
This is the song as I learned it.
----------------

Intro:
e|----------2-0-|----------2-0-|
B|----------3-2-|----------3-2-|
G|----------2-0-|----------2-0-|
D|-0-2-2----0-2-|-0-2-2----0-2-|
A|----------0-0-|----------0-0-|
E|--------------|--------------|

e|-----0-----0-----0-----0-2-0-|-----0-----0-----0-----0-2-0-|
B|---------------0-----0---3-2-|---------------0-----0---3-2-|
G|---2-----4---------0-----2-0-|---2-----4---------0-----2-0-|
D|-0-----2-----4-----------0-2-|-0-----2-----4-----------0-2-|
A|-------------------------0-0-|-------------------------0-0-|
E|-----------------------------|-----------------------------|
                                                        To every-

Verse I:

D  A7   D      G     F#m   A
To everything, turn, turn, turn,

           D       G     F#m   A
There is a season, turn, turn, turn,

      G    F#m      Em     A       D
And a time to every purpose  under heaven.
[ Tab from: http://www.guitartabs.cc/tabs/b/byrds/turn_turn_turn_tab_ver_4.html ]
             A               D
A time to be born, a time to die.

          A                D
A time to plant, a time to reap.

          A               D
A time to kill, a time to heal.

          G  F#m   Em A    D
A time to laugh, a time to weep.


Verse II:

To everything, turn, turn, turn,
There is a season, turn, turn, turn,
And a time to every purpose under heaven.

A time to build up, a time to break down.
A time to dance, a time to mourn.
A time to cast away stones.
A time to gather stones together.

To everything, turn, turn, turn,
There is a season, turn, turn, turn,
And a time to every purpose under heaven.

A time of love, a time of hate.
A time of war, a time of peace.
A time you may embrace.
A time to refrain from embracing.

To everything, turn, turn, turn,
There is a season, turn, turn, turn,
And a time to every purpose under heaven.

A time to gain, a time to lose.
A time to rend, a time to sew.
A time to love, a time to hate.

------------
There it is for what it's worth.
I just thought that the intro on the one post was a little off.
------------
Comments