Byrds - Turn Turn Turn Chords & Tabs

 

Turn Turn Turn Chords & Tabs

Byrds Chords & Tabs

Version: 1 Type: Tab 0 ratings
1 star 2 stars 3 stars 4 stars 5 stars
comments

Turn Turn Turn Tab

   
##################################################################################
# This file is the author's own work and represents their interpretation of the  #
# song. You may only use this file for private study, scholarship, or research.  #
##################################################################################

The Byrds - Turn Turn Turn

{12 str gtr}

intro 
 D              Bm  A   D     Em                Bm  A
-----0----------2---0- -----0-----0-----0-----0-2---0-
---3------------3---2- ---3-----0-----0-----0---3---2-
----------------4---2- -------------------------4---2-
-0-----2--------4---2- -0-----2-----4----5------4---2-
---------------------- -------------------------------
---------------------- -------------------------------

verses

 D       G       G/F#    A      
-----0-------0-------0-------0-----0-----
---3-------0-------0-------2-----3---0-3-
-----------------------------------------
-0-----0-------0-------0-----------------
-------------------------0-----0---------
---------3-------2-----------------------
"..to everything turn turn turn..."


G       G/F#    Em    A            D
-----0-------0-------0-------0------------3---0-------
---0-------0-------0-----2h3---3------3-----------3---
----------------------------------------------------2-
-------0-------0-----------------0--0---0---0---0---0-
-----------------------0------------------------------
-3-------2-------0------------------------------------
 D       G       G/F#    A      
-----0-------0-------0-------0-----0-----
---3-------0-------0-------2-----3---3---
---------------------------------------2-
-0-----0-------0-------0-----------------
-------------------------0-----0---------
---------3-------2-----------------------
there is a season turn turn turn
[ Tab from: http://www.guitartabs.cc/tabs/b/byrds/turn_turn_turn_tab.html ]
 G       G/F#     Em    A           D
-----0-------0--------0-------0---------2-3---0-----0---2p0---3-----
---0-------0--------0-----2h3---3-----3-----------3---------------0-
--------------------------------------------------------------------
-------0-------0------------------0-0-------0---0-----0-----0---0---
------------------------0-------------------------------------------
-3-------2--------0-------------------------------------------------
and a time to every purpose under heaven

chorus

A                D   
-------------0-------2---2-3-----
---2---0-3---------3-----------0-
---------------------------------
-----2-----2---2-0-----0-----0---
-0-------------------------------
--------------------------------- 


solo
-----------------------------------------------------------------
-----------------------------------------------------------------
-------0-2---2-0---0---------------------------------------------
---0-4---------------4---4-2-----------0--2---2-0--0-------------
-0----------------------------0---0-4----------------4---4-2---2-
-----------------------------------------------------------------

-------------------------------------------------------------------
-------------------------------------------------------------------
-4---4-2---0---------------------------------7-7---7-6---7-9---7-7-
-------------4---2---4---2--4-2-4-5---2---0------------------------
-------------------------------------------------------------------
-------------------------------------------------------------------

-------------------------------------------------------------------------------
-------------------------------------------------------------------------------
--7-7---6-6---7-9---11-11---9s7-6---7-9---7--7---11-9s7-7--6-6---4-4---2-2---0-
-------------------------------------------------------------------------------
-------------------------------------------------------------------------------
-------------------------------------------------------------------------------

-----------------
-----------------
-0---------------
----4--2--4--2-0-
-----------------
-----------------
Comments