Byrds - Mr Tambourine Man Chords & Tabs

 

Mr Tambourine Man Chords & Tabs

Byrds Chords & Tabs

Version: 2 Type: Bass Tab 0 ratings
1 star 2 stars 3 stars 4 stars 5 stars
comments

Mr Tambourine Man Bass Tab

   
                         The Byrds - Mr Tambourine Man © 1965                            
                               
                               Music and Lyrics by Bob Dylan

                                                                         B.Dylan
Bass (M.Hillman)



                                                              
G||------------------|------------------|--------------------|
D||------------------|------------------|--0------------0/---|
A||------------------|------------------|--------------------|
E||------------------|------------------|--------------------|


                                                                   
--------------------|----------------------|----------------------|
--7------------5/---|----------------------|----------------------|
--------------------|----------------------|----------------------|
--------------------|--3------3--3----3----|--5------5--5----5----|


                                                                     
----------------------|----------------------|----------------------|
----------------------|----------------------|----------------------|
--5------5--5----2----|----------------------|--5------5--5----2----|
----------------------|--3------3--3----3----|----------------------|


                                                                        
----------------------|------------------------|-----------------------|
----------------------|------------------------|-----------------------|
----------------------|------------------------|-----------------------|
--3------3--3----3----|--5------5--5--5--5--5--|--5------5--5--5--5----|


                                                                     
----------------------|----------------------|----------------------|
----------------------|----------------------|----------------------|
----------------------|----------------------|--5------5--5----2----|
--3------3--3----3----|--5------5--5----5----|----------------------|


                                                                      
----------------------|----------------------|-----------------------|
----------------------|----------------------|-----------------------|
----------------------|--5------5----5--2----|-----------------------|
--3------3----3--3----|----------------------|--3------3--3----3--3--|


                                                                        
----------------------|-----------------------|------------------------|
----------------------|-----------------------|------------------------|
----------------------|--5------5--5--5--5----|--5------5--5--5--5--5--|
--5------5--5----5----|-----------------------|------------------------|


                                                                       
|-----------------------|----------------------|----------------------|
|*----------------------|----------------------|----------------------|
|*----------------------|----------------------|--5------5--5----2----|
|---3------3--3----3----|--5------5--5----5----|----------------------|


                                                                     
----------------------|----------------------|----------------------|
----------------------|----------------------|----------------------|
----------------------|--5------5--5----2----|----------------------|
--3------3----3--3----|----------------------|--3------3----3--3----|


                                                                     
----------------------|----------------------|----------------------|
----------------------|----------------------|----------------------|
--5------5--5----2----|----------------------|--5------5--5----2----|
----------------------|--3------3----3--3----|----------------------|

[ Tab from: http://www.guitartabs.cc/tabs/b/byrds/mr_tambourine_man_btab_ver_2.html ]
                                                                     
----------------------|----------------------|----------------------|
----------------------|----------------------|----------------------|
----------------------|--5------5--5----2----|----------------------|
--3------3----3--3----|----------------------|--3------3----3--3----|


                                                                           
------------------------|-------------------------||----------------------|
------------------------|------------------------*||----------------------|
------------------------|------------------------*||----------------------|
--5------5--5--5--5--5--|--5----5----5--5--5--5---||--3------3--3----3----|


                                                                        
----------------------|----------------------|-------------------------|
----------------------|----------------------|-------------------------|
----------------------|----------------------|-------------------------|
--3------3--3----3----|--5------5--5----5----|--5----5--5--5--5--5--5--|


                                                                     
----------------------|----------------------|----------------------|
----------------------|----------------------|----------------------|
----------------------|----------------------|--5------5--5----2----|
--3------3--3----3----|--5------5--5----5----|----------------------|


                                                                     
----------------------|----------------------|----------------------|
----------------------|----------------------|----------------------|
----------------------|--5------5--5----2----|----------------------|
--3------3--3----3----|----------------------|--3------3--3----3----|


                                                                        
------------------------|-----------------------|----------------------|
------------------------|-----------------------|----------------------|
------------------------|-----------------------|----------------------|
--5------5--5--5--5--5--|--5------5--5--5--5----|--3------3--3----3----|


                                                                     
----------------------|----------------------|----------------------|
----------------------|----------------------|----------------------|
----------------------|--5------5--5----2----|----------------------|
--5------5--5----5----|----------------------|--3------3----3--3----|


                                                                      
----------------------|-----------------------|----------------------|
----------------------|-----------------------|----------------------|
--5------5----5--2----|-----------------------|----------------------|
----------------------|--3------3--3----3--3--|--5------5--5----5----|


                                                               
--------------------|--------------------|--------------------|
--0------------0/---|--7------------7/---|--0------------0/---|
--------------------|--------------------|--------------------|
--------------------|--------------------|--------------------|


                                                               
--------------------|--------------------|--------------------|
--7------------7/---|--0------------0/---|--7------------7/---|
--------------------|--------------------|--------------------|
--------------------|--------------------|--------------------|


                                                               
--------------------|--------------------|--------------------|
--0------------0/---|--7------------7/---|--0------------0/---|
--------------------|--------------------|--------------------|
--------------------|--------------------|--------------------|


                                                               
--------------------|--------------------|--------------------|
--7------------7/---|--0------------0/---|--7------------7/---|
--------------------|--------------------|--------------------|
--------------------|--------------------|--------------------|


                                           
--------------------|--------------------||
--0------------0/---|--7------------7/---||
--------------------|--------------------||
--------------------|--------------------||

Comments