Byrds - Eight Miles High Chords & Tabs

 

Eight Miles High Chords & Tabs

Byrds Chords & Tabs

Version: 1 Type: Tab 0 ratings
1 star 2 stars 3 stars 4 stars 5 stars
comments

Eight Miles High Tab

   
<h5>

eight mile high

Electric 12 str

chords
Em  F#m11/G  G/E  D   Dsus2  C  C9 Csus2
0   0        0    2   0      0  0  0
0   0        0    3   3      1  3  1
0   2        4    2   2      0  0  0
2   4        5    0   0      2  2  0
2   4        5    #   #      3  3  3
0   0        0    #   #      #  #  #

intro
--------------------------------------------------------------------|
--------------------------------------------------------------------|
--------------------------------------------------------------------|
--------------------------------------------------------------------|
--------------------------------------------------------------------|
-0--0-0-0-0-0---0-0-0-0-0-0-0-0-0-0-0--0-0-0-0-0-0-0-0-0-0-0-0--0-0-|

(12 string)
-----------------------------------------------------------------------------|
-----------------------------------------------------------------------------|
-7---4------------7-4--------------------------------------------------------|
---------5---7--------5h7-4---4---------------4-4-7-5-4---4------------------|
----------------------------5---5-7-----4-5-7-----------5---5-7-------4------|
------------------------------------7-7-------------------------7-5-7----5-7-|
[ Tab from: http://www.guitartabs.cc/tabs/b/byrds/eight_miles_high_tab.html ]
----------------------------------------------------------------------------|
----------------------------------------------------------------------------|
----------------------4------4----------------------------------------------|
-----------------4--7----7-4---4-4h5p4--------------------------------------|
-----------4-5-7-----------------------5-7-4-4h5----4-------4-4-------------|
-5-7--5-7-----------------------------------------7---5-7-7-----5-2-2b--0-0-|

-12-12-12-13p12-12-13p12-12-13-12-13-12-13-12-13-12-13-12-13-12-13-12-13-12-|
----------------------------------------------------------------------------|
----------------------------------------------------------------------------|
----------------------------------------------------------------------------|
----------------------------------------------------------------------------|
----------------------------------------------------------------------------|

verses

Em    F#m11/G  G/E         D   Dsus2      C  C9
eight miles    high    and when you       touch down
G                     D   Dsus2      C Csus2 C Csus2
you'll find that its  stranger than known
Em    F#m11/G  G/E         D   Dsus2      C  C9
signs in   the street that say where youre going
G                 D  Dsus2     C Csus2 C Csus2
are somewhere just being their own

Em
--------------------------------------|
--------------0-----------------------|
-------0--2------2--4--4--4--2----4-2-|
-------2--4------4--5--5--5--4----5-4-|
----2---------------------------------|
-0------------------------------------|

nowhere is there warmth to be found
among those afraid of losing their ground
rain gray town known for its sound
in places small faces unbound

round the squares huddled in storms
some laughing some just shapeless forms
sidewalk scenes and black limousines
some living some standing alone


Comments