Byrds - Chestnut Mare Chords & Tabs

 

Chestnut Mare Chords & Tabs

Byrds Chords & Tabs

Version: 1 Type: Tab 0 ratings
1 star 2 stars 3 stars 4 stars 5 stars
comments

Chestnut Mare Tab

   
##################################################################################
# This file is the author's own work and represents their interpretation of the  #
# song. You may only use this file for private study, scholarship, or research.  #
##################################################################################

The Byrds - Chestnut Mare

(12 str gtr)
intro

 D       F#m     Bm              G               Em      A7
-----2-------2-------2---0-----------3-------3-------0-------0---
---3---3---2---2---3---3---3---3---0---0---0---0---0---0---3---2-
-----------------------------4-----------------------------------
-0---------------4-----------------------------------------------
---------4-----------------------------------------------0-------
---------------------------------3-------2-------0---------------
[ Tab from: http://www.guitartabs.cc/tabs/b/byrds/chestnut_mare_tab.html ]
bridge
 D7                        C                 Em   
-----2-----------2---------------0----------------- 
---1---1---1---1---1---1-------1---1---------------
---------2-----------2-----------------------------
-0-----------0-----------------------0------------- 
-------------------------0-2-3---------3-2-----0--- 
-------------------------------------------2-3---0- 
above the clouds higher than eagles were gliding
over the moon 

     G                       D
---------3-----------3-----------2-------3-2-0-------0-
-------0---0---0---1---1---0---3---3---3-------3---3---
-------------------------------------------------2-----
-------------0-----------0---0-------0-----------------
-------------------------------------------------------
-0-2-3-----------3-------------------------------------
suspended in the sky

 D7                        C                 Em   
-----2-----------2---------------0----------------- 
---1---1---1---1---1---1-------1---1---------------
---------2-----------2-----------------------------
-0-----------0-----------------------0------------- 
-------------------------0-2-3---------3-2-----0--- 
-------------------------------------------2-3---0- 
gulls far below seemed to be suddenly rising

G             Bm       Am
---------3---------------2--0------------
-------0---0---0-------3----0------------
---------------------4------2------------
-------------0-----4--------2------------
----------------------------0------------
-0-2-3-----------3----------0------------
exploding all around  

 
Comments