Byrds - Bound To Fall Chords & Tabs

 

Bound To Fall Chords & Tabs

Byrds Chords & Tabs

Version: 1 Type: Tab 0 ratings
1 star 2 stars 3 stars 4 stars 5 stars
comments

Bound To Fall Tab

   
#----------------------------------PLEASE NOTE---------------------------------#
#This file is the author's own work and represents their interpretation of the #
#song. You may only use this file for private study, scholarship, or research. #
#------------------------------------------------------------------------------#
From RICKL1@IX.NETCOM.COM Thu May 15 17:15:27 1997
Date: Sun, 04 May 1997 22:35:00 GMT

Subject: Bound To Fall    Manassas/The Byrds    Chords/Words

please post corrections
thanks to Roy J for the words

in 5/4 time

Manassas       Bound To Fall  written by Brewer/Mastin

*
-------------- -----------
-------------- --1-1-0-----
-2-2-------2-- --------2---
-----5-3-5---- ---------5-
-------------5 ------------
-------------- -----------

* pick melody over D

D *

G add A

------3----------
------0----------
------2----------
------0----------
------0----------
------3----------


The Byrds       Bound To Fall

[ Tab from: http://www.guitartabs.cc/tabs/b/byrds/bound_to_fall_tab.html ]
Em              D   A        Em              D     B
--------------  ------------ --------------  ----------
--------------- ------------ --------------  ----------
-4-4-------4--- 7 7 6-4----- -4-4-------4--- ---7------
-----7-5-7----- ---------4-- -----7-5-7----- ------8---
-------------7- ------------ -------------7- -7--------
--------------- ------------ --------------- ----------


Em              D   A        D    A            B
--------------  ------------ ------------  ----------
--------------- ------------ ------------  ----------
-4-4-------4--- 7 7 6-4----- -7-7-6-4----  ----------
-----7-5-7----- ---------4-- ---------4--  ----------
-------------7- ------------ ------------  ----------
--------------- ------------ ------------  ----------

A                     Em
--------------------------
------5-7- 8-7--5---------
-6 7---------------7------
-----------------------9--
--------------------------
--------------------------

A                     Em       B
-------------------------- ----------
------5-7- 8-7--5--------- ----------
-6 7---------------7------ ----------
-----------------------9-- ----------
-------------------------- ----------
-------------------------- ----------
Comments