Byrd Tracy - Ten Rounds With Jose Cuervo Chords & Tabs

 

Ten Rounds With Jose Cuervo Chords & Tabs

Byrd Tracy Chords & Tabs

Version: 1 Type: Tab 0 ratings
1 star 2 stars 3 stars 4 stars 5 stars
comments

Ten Rounds With Jose Cuervo Tab

Standard Tuning

p=pulloff     h=hammeron    / \ =slides  tp=tremolo pick
Intro:
------------------------------------------------------------------------------------
------------------------------------------------------------------------------------
------------------------------------------------------------------------------------
---------0--4--0---------0------2-------------0--4--0--2p0--/4--2-------------
--0h2-------------0h2------2------0--0h2----------------------------0--0h2---
------------------------------------------------------------------------------------

--------------------------------------------------------------------
-------------------------------------------------------------------
--------------------------------------------------------------------
---0--4--0----------0-----2--0---------0--4--0--2h4--2--0---
--------------0h2------2---------0h2----------------------------
--------------------------------------------------------------------


"....carry a tune in a bucket"
---------------------------
---------------------------
---------------------------
-------4p2p0------2-----
-----------------2--------
----------------------------
[ Tab from: http://www.guitartabs.cc/tabs/b/byrd_tracy/ten_rounds_with_jose_cuervo_tab.html ]
After First Chorus:
--------------------------------------------------------------------------
----------------------------------------------------------------------------
----------------------------------------------------------------------------
------------0--4--0---------0------2-------------0--4--0--2h4--2--0--
--0--0h2-------------0h2------2------0--0h2---------------------------
----------------------------------------------------------------------------

"....asked me to dance..."
------14h15--14p12----------12---
-------------------------15-------
-----------------------------------
----------------------------------
-----------------------------------
-----------------------------------

"....my two left feet..."
----17tp-----15--15p14p12----------
----------------------------------15----
----------------------------------------
----------------------------------------
----------------------------------------
----------------------------------------

"...and an old memory..."
----17--17--17--17--15--14--------
----------------------------------17----
----------------------------------------
----------------------------------------
----------------------------------------
----------------------------------------

During sax solo this is played a few times
-----------------
----------------
-----------------
-----------0-----
----0h2---------
-----------------

Play the intro in pieces during the end of the song while the singing fades out
Comments