Buzzhorn - Ordinary Chords & Tabs

 

Ordinary Chords & Tabs

Buzzhorn Chords & Tabs

Version: 1 Type: Bass Tab 0 ratings
1 star 2 stars 3 stars 4 stars 5 stars
comments

Ordinary Bass Tab

   
Artist: The Buzzhorn
Song: Ordinary
Album:disconnected
inst.type: bass
tabbed by: NoFace
official site web of buzzhorn: www.thebuzzhorn.com

Intro: 00:00 (main chorus whitout lycris)

G/-------------------------------------------------------
D/-------------------------------------------------------
A/-------------------------------------------------------  
E/5-5-5-5-5-5-5-5--7-8-8-8-8--3-3-3-3-3-3-3-3--7-8-8-8-8-

G/---------------------------------------------
D/---------------------------------------------
A/--------------------------------------------- 
E/5-5-5-5-5-5-5-5--7-8-8-8-8--3-3-3-3-3-3-3-3--

G/--------------------------
D/--------------------------
A/--------------------------
E/7-8-7-8--8-7-6-5-4-3-0000-


Verse: 00:16 (Friend is the phone and the cigarettes)

G/-----------------------------------------------
D/-----------------------------------------------
A/-----------------------------------------------
E/3-3-3-3-3-3-3-3-3-3-3-3-3-3-3-3-3-3-3-3-3-3-3-3

G/-----------------------------------------------
D/-----------------------------------------------
A/-----------------------------------------------
E/5-5-5-5-5-5-5-5-5-5-5-5-5-5-5-5-5-5-5-5-5-5-5-5

G/-----------------------------------------------
D/-----------------------------------------------
A/-----------------------------------------------
E/3-3-3-3-3-3-3-3-3-3-3-3-3-3-3-3-3-3-3-3-3-3-3-3

G/---------------------------
D/---------------------------
A/---------------------------
E/5-5-5-5-5-5-5-5-5-5-5-5-5-5

G/---------------------
D/---------------------
A/---------------------
E/-7-8--7-8--8-7-5-3-0-

Chorus: 00:37 (This is your life, it's all been ordinary)

G/-------------------------------------------------------
D/-------------------------------------------------------
A/-------------------------------------------------------  
E/5-5-5-5-5-5-5-5--7-8-8-8-8--3-3-3-3-3-3-3-3--7-8-8-8-8-

G/---------------------------------------------
D/---------------------------------------------
A/--------------------------------------------- 
E/5-5-5-5-5-5-5-5--7-8-8-8-8--3-3-3-3-3-3-3-3--

G/--------------------------
D/--------------------------
A/--------------------------
E/7-8-7-8--8-7-6-5-4-3-0000-                                     X2(THE CHORUS)
                         

Verse: 01:04 (Bags that hang below your eyes) 

G/-----------------------------------------------
D/-----------------------------------------------
A/-----------------------------------------------
E/3-3-3-3-3-3-3-3-3-3-3-3-3-3-3-3-3-3-3-3-3-3-3-3

G/-----------------------------------------------
D/-----------------------------------------------
A/-----------------------------------------------
E/5-5-5-5-5-5-5-5-5-5-5-5-5-5-5-5-5-5-5-5-5-5-5-5
[ Tab from: http://www.guitartabs.cc/tabs/b/buzzhorn/ordinary_btab.html ]
G/-----------------------------------------------
D/-----------------------------------------------
A/-----------------------------------------------
E/3-3-3-3-3-3-3-3-3-3-3-3-3-3-3-3-3-3-3-3-3-3-3-3

G/---------------------------
D/---------------------------
A/---------------------------
E/5-5-5-5-5-5-5-5-5-5-5-5-5-5

G/---------------------
D/---------------------
A/---------------------
E/-7-8--7-8--8-7-5-3-0-

Chorus : 01:26 (This is your life, it's all been ordinary)

G/-------------------------------------------------------
D/-------------------------------------------------------
A/-------------------------------------------------------  
E/5-5-5-5-5-5-5-5--7-8-8-8-8--3-3-3-3-3-3-3-3--7-8-8-8-8-

G/---------------------------------------------
D/---------------------------------------------
A/--------------------------------------------- 
E/5-5-5-5-5-5-5-5--7-8-8-8-8--3-3-3-3-3-3-3-3--

G/---------------------
D/---------------------
A/---------------------
E/-7-8--7-8--8-7-5-3-0-

G/-------------------------------------------------------
D/-------------------------------------------------------
A/-------------------------------------------------------  
E/5-5-5-5-5-5-5-5--7-8-8-8-8--3-3-3-3-3-3-3-3--7-8-8-8-8-

G/---------------------------------------------
D/---------------------------------------------
A/--------------------------------------------- 
E/5-5-5-5-5-5-5-5--7-8-8-8-8--3-3-3-3-3-3-3-3--


G/---------------------
D/---------------------
A/---------------------
E/7-8-7-8-8-7-6-5-4-3--

AFTER 2ND CHORUS: 01:52 ( At home yeah Find yourself At home) Do it strong:

G/-----------------------------------
D/-----------------------------------
A/-----------------------------------
E/0000-----8888-----0000-----8888----

Bridge: 02:09 (Life and death, the money that's left..)

G/---------------------------
D/---------------------------
A/---------------------------
E/3-3-3-3-3-3-3-3-3-3-3-3-3-3

G/---------------------------
D/---------------------------
A/---------------------------
E/5-5-5-5-5-5-5-5-5-5-5-5-5-5

G/---------------------------
D/---------------------------
A/---------------------------
E/3-3-3-3-3-3-3-3-3-3-3-3-3-3

G/-------------
D/-------------
A/-------------
E/5-5-5-5-5-5-5

Chorus: 02:20 (This is your life and all been ordinary)

G/-------------------------------------------------------
D/-------------------------------------------------------
A/-------------------------------------------------------  
E/5-5-5-5-5-5-5-5--7-8-8-8-8--3-3-3-3-3-3-3-3--7-8-8-8-8-

G/---------------------------------------------
D/---------------------------------------------
A/--------------------------------------------- 
E/5-5-5-5-5-5-5-5--7-8-8-8-8--3-3-3-3-3-3-3-3--

G/--------------------------
D/--------------------------
A/--------------------------
E/7-8-7-8--8-7-6-5-4-3-0000-                                   X4(THE CHORUS)



THE END          for contact/msn messenger: linkin_crawling@hotmail.com
Comments