Buzzcocks - Orgasm Addict Chords & Tabs

 

Orgasm Addict Chords & Tabs

Buzzcocks Chords & Tabs

Version: 3 Type: Tab 0 ratings
1 star 2 stars 3 stars 4 stars 5 stars
comments

Orgasm Addict Tab

   
Title: Orgasm addict
Artist: The buzzcocks
Instrument: Guitar
Tuning: Standard (E A D G B E)


verse
E|----------------|----------------|----------------|----------------||
B|----------------|----------------|----------------|----------------||
G|5---------------|7---------------|5---------------|7---------------||
D|6---------------|8---------------|6---------------|8---------------||
A|6---------------|8---------------|6---------------|8---------------||
E|4---------------|6---------------|4---------------|6---------------||
  G#               A#               G#               A#

chorus
E|----------------|----------------||
B|----------------|----------------||
G|3-----5-----7---|7---------------||
D|4-----6-----8---|8---------------||
A|4-----6-----8---|8---------------||
E|2-----4-----6---|6---------------|| x2
  F#    G#    A#   A#

middle 1
E|----------------|----------------|----------------|----------------||
B|----------------|----------------|----------------|----------------||
G|5---------------|5---------------|7---------------|7---------------||
D|6---------------|6---------------|8---------------|8---------------||
A|6---------------|6---------------|8---------------|8---------------||
E|4---------------|4---------------|6---------------|6---------------||
  G#               G#               A#               A#
E|----------------|----------------|----------------|----------------||
B|----------------|----------------|----------------|----------------||
G|3---------------|5---------------|7---------------|7---------------||
D|4---------------|6---------------|8---------------|8---------------||
A|4---------------|6---------------|8---------------|8---------------||
E|2---------------|4---------------|6---------------|6---------------||
  F#               G#               A#               A#
[ Tab from: http://www.guitartabs.cc/tabs/b/buzzcocks/orgasm_addict_tab_ver_3.html ]
middle 1(guitar 2)
E|----------------|----------------|----------------|----------------||
B|9---9-----------|9---9-----------|11--11----------|11--11----------||
G|8---8-----------|8---8-----------|10--10----------|10--10----------||
D|----------------|----------------|----------------|----------------||
A|----------------|----------------|----------------|----------------||
E|----------------|----------------|----------------|----------------||
  G#               G#               A#               A#
E|----------------|----------------|----------------|----------------||
B|7---7-----------|9---9-----------|11--------------|----------------||
G|6---6-----------|8---8-----------|10--------------|----------------||
D|----------------|----------------|----------------|----------------||
A|----------------|----------------|----------------|----------------||
E|----------------|----------------|----------------|----------------||
  F#               G#               A#
(sounds better with up strokes)

middle 2
E|----------------|----------------|----------------|----------------||
B|8---------------|10--------------|8---------------|10--------------||
G|8---------------|10--------------|8---------------|10--------------||
D|8---------------|10--------------|8---------------|10--------------||
A|6---------------|8---------------|6---------------|8---------------||
E|----------------|----------------|----------------|----------------||
  D#               F                D#               F
E|----------------|----------------|----------------|----------------||
B|6---------------|6---------------|8------13-------|8-------13------||
G|6---------------|6---------------|8------13-------|8-------13------||
D|6---------------|6---------------|8------13-------|8-------13------||
A|4---------------|4---------------|6------11-------|6-------11------||
E|----------------|----------------|----------------|----------------||
  C#               C#               D#     G#        D#      G#

verse
chorus
verse
chorus
midlle 1
verse
chorus
verse
chorus
middle 1
middle 2 x2
verse(no words)
verse
chorus
verse
chorus x3
Comments