Buzzcocks - Orgasm Addict Chords & Tabs

 

Orgasm Addict Chords & Tabs

Buzzcocks Chords & Tabs

Version: 2 Type: Tab 0 ratings
1 star 2 stars 3 stars 4 stars 5 stars
comments

Orgasm Addict Tab

   
----------------------------------------------------------------------------
			     Orgasm addict - BUZZCOCKS
----------------------------------------------------------------------------
Tabbed by: Cristof jones
Email: Yoda_ina_skoda@hotmail.com
Tuning:standard

Main bit:

let ring through-out 1st 2 times then strum 4 the rest of song

e|-------------5-----------------------7-------------------------------------|
B|-------------5-----------------------7-------------------------------------|
G|-------------6-----------------------8-------------------------------------|
D|-------------7-----------------------9-------------------------------------|
A|-------------7-----------------------9-------------------------------------|
E|-------------5-----------------------7-------------------------------------|

         You tried it just for once and found it alright for kicks

e|--------------5---------------------7------------------------------------|
B|--------------5---------------------7------------------------------------|
G|--------------6---------------------8------------------------------------|
D|--------------7---------------------9------------------------------------|
A|--------------7---------------------9------------------------------------|
E|--------------5---------------------7------------------------------------|

         but now you've found out it's a habit that sticks

Chorus:

e|-------------3------5--------7---------------------------------------------|
B|-------------3------5--------7---------------------------------------------|
G|-------------4------6--------8---------------------------------------------|
D|-------------5------7--------9---------------------------------------------|
A|-------------5------7--------9---------------------------------------------|
E|-------------3------5--------7---------------------------------------------|

     you're an or  -  ga - sm addict    (repeat this X2)

Orgasmic screaming Part:
[ Tab from: http://www.guitartabs.cc/tabs/b/buzzcocks/orgasm_addict_tab_ver_2.html ]
e|--------------5---------------------7------------------------------------|
B|--------------5---------------------7------------------------------------|
G|--------------6---------------------8------------------------------------|
D|--------------7---------------------9------------------------------------|
A|--------------7---------------------9------------------------------------|
E|--------------5---------------------7------------------------------------|

                ahhhhhhh ahhhhhhhhh    ahhhhhhhh ahhhhhhhhhhhhhh

Middle:

e|--------------------------------------------------------------------|
B|----9---------------------11----------------------------------------|
G|----9---------------------11----------------------------------------|
D|----9---------------------11----------------------------------------|
A|----7---------------------9-----------------------------------------|
E|--------------------------------------------------------------------|

    You're making out with school kids        (this is repeated X2)
    winos and heads of state
    butchers' assistants and bellhops
    you've had 'em all here and there

e|-----------------------------------------------------------------------|
B|--7-------------------------------------------9------------------------|
G|--7-------------------------------------------9------------------------|
D|--7-------------------------------------------9------------------------|
A|--5-------------------------------------------7------------------------|
E|-----------------------------------------------------------------------|

 you've even made it with the lady who puts the little plastic robins on the Christmas cakes

children of god and the joy strings international women with no body hair

and then it goes back to the main riff and the outro is basicly the chorus played over a few times

and that just about wraps this song up

| /  slide up
| \  slide down
| h  hammer-on
| p  pull-off
| ~  vibrato
| +  harmonic
| x  Mute note
============================================================================
Comments