Buzzcocks - Ever Fallen In Love Chords & Tabs

 

Ever Fallen In Love Chords & Tabs

Buzzcocks Chords & Tabs

Version: 1 Type: Bass Tab 0 ratings
1 star 2 stars 3 stars 4 stars 5 stars
comments

Ever Fallen In Love Bass Tab

I don't even play the bass, so this is a rough guess.  Each note represents a
quaver beat, so if any gaps after left after a note it is a crochet.
[ Tab from: http://www.guitartabs.cc/tabs/b/buzzcocks/ever_fallen_in_love_btab.html ]
Verse (intro is the same)
G|---------------------------------------------------------------------------|
D|---------------------------------------------------------------------------|
A|4444444444444642----------------4444444444444642---------------------------|
E|----------------0000000000000000----------------0000000000000000-----------|
Chorus
G|---------------------------------------------------------------------------|
D|---------------------------------------------------------------------------|
A|4444444422226762444444442222676255555555--------7---7----------------------|
E|----------------------------------------55555555--7---7--------------------|
Middle
G|---------------------------------------------------------------------------|
D|---------------------------------------------------------------------------|
A|---------------------------------------------------------------------------|
E|0000000000000000000000000000000000000000000000000000000000000000-----------|
End
G|---------------------------------------------------------------------------|
D|---------------------------------------------------------------------------|
A|---7------5-------2222-----------------------------------------------------|
E|77---7-55---5-3333----0----------------------------------------------------|
                        E fades out
 Song format

Intro
Verse
Chorus
Verse
Chorus
Middle
Chorus
End

I think this is it.  Correct me if wrong
Comments