Butthole Surfers - Suicide Chords & Tabs

 

Suicide Chords & Tabs

Butthole Surfers Chords & Tabs

Version: 1 Type: Tab 0 ratings
1 star 2 stars 3 stars 4 stars 5 stars
comments

Suicide Tab

SUICIDE 

by the butthole surfers

tab by chris lawrence (mustang@islandnet.com)

INTRO:

E------------------------------------------------------------
B------------------------------------------------------------
G------------------------------------------------------------
D-------------------------------9-----9-----9---9---9---9-9--
A---7-7-7-7-7-7-7-7-7-7-7-7-7-7-7-7-7-7-7-7-7-7-7-7-7-7-7-7\-
E-------------------------------0-----0-----0---0---0---0----

VERSE:

E----0-0-----------------------------------------------
B----0-0-2-2-0--7\9-9-9-9--15-15-15-14-----------------
G----1-1-2-2-0--7\9-9-9-9--14-14-14-14--------------9\-
D----2-2-2-2-0--7\9-9-9-9--14-14-14-14--9-11-9-11-9----
A----2-2-0-0----5\7-7-7-7--12-12-12-12-----------------
E--0-0-0-----------------------------------------------

Repeat intro riff between each verse. The A after the
open E may actually just be an Esus4. Each verse is 
slightly different:

VERSE 2:

E----0-0----------0-0------------0-0--------0---0--0--0--0--0--0--
B----0-0-2-2-0----0-0--5---5-0---0-0-2-2-0--5---5--5--5--5--5--5--
G----1-1-2-2-0----1-1--7b-(7)----1-1-2-2-0--7b-(7)(7)(7)(7)(7)(7)-
D----2-2-2-2-0----2-2------------2-2-2-2-0------------------------
A----2-2-0-0------2-2------------2-2-0-0--------------------------
E--0-0-0--------0-0-0----------0-0-0------------------------------

VERSE 3:

E----0-0----------0-0-------------0-0--------0--0-0--0-0--0---
B----0-0-2-2-0----0-0--0-5~-5-0---0-0-2-2-0--0--0-0--0-0--0---
G----1-1-2-2-0----1-1-------------1-1-2-2-0---------------9\--
D----2-2-2-2-0----2-2-------------2-2-2-2-0--9-11-9-11-9------
A----2-2-0-0------2-2-------------2-2-0-0---------------------
E--0-0-0--------0-0-0-----------0-0-0-------------------------
[ Tab from: http://www.guitartabs.cc/tabs/b/butthole_surfers/suicide_tab.html ]
WALK-UP:

E----------------------------------------
B----------------------------------------
G----------------------------------9-9-9-
D----------5---------4-5-7---------9-9-9-
A----4-5-7---5-4-5-5---------4-5-7-7-7-7-
E--5-----------------------5-------0-0-0-

INTRO

VERSE 4:

E----0-0----------0-0-------------0-0--------0-0-0-0-0--0---
B----0-0-2-2-0----0-0--0-5~-5-0---0-0-2-2-0--0-0-0-0-0--0---
G----1-1-2-2-0----1-1-------------1-1-2-2-0--4-6-4-6-4--9\--
D----2-2-2-2-0----2-2-------------2-2-2-2-0-----------------
A----2-2-0-0------2-2-------------2-2-0-0-------------------
E--0-0-0--------0-0-0-----------0-0-0-----------------------

VERSE 4:

E----0-0----------0-0-------------0-0--------0-0-0-0-0--
B----0-0-2-2-0----0-0--0-5~-5-0---0-0-2-2-0--0-0-0-0-0--
G----1-1-2-2-0----1-1-------------1-1-2-2-0--1-1-1-1-1--
D----2-2-2-2-0----2-2-------------2-2-2-2-0--2-2-2-2-2--
A----2-2-0-0------2-2-------------2-2-0-0----2-2-2-2-2--
E--0-0-0--------0-0-0-----------0-0-0--------0-0-0-0-0--

VERSE 5:

E----0-0------------------------------0-0----------0-0-0-0-0-
B----0-0------------0-0--0-5b--5-0----0-0----------0-0-0-0-0-
G----1-1--2b-2-0----1-1---------------1-1--2b-2-0--6-6-6-6-9-
D----2-2------------2-2---------------2-2--------------------
A----2-2------------2-2---------------2-2--------------------
E--0-0-0----------0-0-0-------------0-0-0--------------------

WALK-UP X 2

I should note that none of those verse tabs are really all
that accurate.. the verses seemed to be based mainly around
E licks, so rock it out...

-------------------------------------------------
THE BUTTHOLE SURFERS GUITAR/BASS TAB ARCHIVE:
http://www.islandnet.com/~mustang/1401/index.html
-------------------------------------------------
Comments