Butthole Surfers - Strawberry Chords & Tabs

 

Strawberry Chords & Tabs

Butthole Surfers Chords & Tabs

Version: 1 Type: Tab 0 ratings
1 star 2 stars 3 stars 4 stars 5 stars
comments

Strawberry Tab

STRAWBERRY

By the Butthole Surfers

tabbed by chris lawrence (mustang@islandnet.com)

pick scrapes during bass intro...

verse:   (rhythm gtr palm mutes G => F#)

  leads over F#
E---------------------------------------------------------|
B---------------------------------------------------------|
G-------0-2-3-5-3-2-3-2-0-2--------------5~-5-3-2-3-3~-0--|
D--4~~~---------------------4~------4~~~------------------|
A---------------------------------------------------------|
E---------------------------------------------------------|

pre-chorus:

E-------------------------------------------------------------|
B-------------------------------------------------------------|
G--8-8-8-8-8-8-8-8-8-8-8-8-8-8-8\7-7-7-7-7-7-7----------------|
D--8-8-8-8-8-8-8-8-8-8-8-8-8-8-8\7-7-7-7-7-7-7-8\5-5-5-5-5-8--|
A--6-6-6-6-6-6-6-6-6-6-6-6-6-6-6\5-5-5-5-5-5-5-8\5-5-5-5-5-8--|
E----------------------------------------------6\3-3-3-3-3-6--|

play 3 times, then:

E--------------------------------------------------------------|
B--------------------------------------------------------------|
G--8-8-8-8-8-8-8-8-8-8-8-8-8-8-8\7-7-7-7-7-7-7/10-10-10-10-10--|
D--8-8-8-8-8-8-8-8-8-8-8-8-8-8-8\7-7-7-7-7-7-7/10-10-10-10-10--|
A--6-6-6-6-6-6-6-6-6-6-6-6-6-6-6\5-5-5-5-5-5-5/-8--8--8--8--8--|
E--------------------------------------------------------------|

next:  (w/ wah)

E------------------------------------------------------------------------|
B--8~~~--7-8-8\10~--10-8-7-7^8^7^8^7^8^7~~---7----7-8-10-8-10-10~-10~-8--|
G------------------------------------------7---7-------------------------|
D------------------------------------------------------------------------|
A------------------------------------------------------------------------|
E------------------------------------------------------------------------|

E------------------------|
B--8-7-8-7^8^7~----7-----|
G----------------7---7\--|
D------------------------|
A------------------------|
E------------------------|

chorus:

E------------------------------------3-----------------------|
B-------5---------------8--------3-----3---------------------|
G----5----5---------8-----8--------0-----0-------0-0-0-------|
D--5---5----5---------8-----8--0-----------------0-0-0-------|
A--3----------3\6-6------------2------------1-------------1--|
E------------------------------3--------------3--3-3-3--3----|

verse w/ similar fills...
repeat all riffs (w/ minimal variation)

solo:
[ Tab from: http://www.guitartabs.cc/tabs/b/butthole_surfers/strawberry_tab.html ]
E--------------------------------------------------------9-9\8-8-8--|
B--------------------------------------------------------9-9\8-8-8--|
G--0-5~~--7-8~~--7-5-5-4-5-7~-7~------0-5~~--7-8~~-------6-6\5-5-5--|
D--------------------------------5~~----------------5-6~-6-6\5-5-5--|
A-------------------------------------------------------------------|
E-------------------------------------------------------------------|

E---------------------------------------------------------------------|
B--\13~~-15-13-15-15b~r-13-13-12-13-13\15-15----------13~~-13-15-16~--|
G--------------------------------------------12~~--15-----------------|
D---------------------------------------------------------------------|
A---------------------------------------------------------------------|
E---------------------------------------------------------------------|

E------------------------------------------------------------------------|
B--18-20b-20b-r20~~~~\---------------------------------------------------|
G----------------------0-5~~--7-8~~~--7-5-5-4-5-7-7------0-5~-7-7-7\8~~--|
D---------------------------------------------------5-5~-----------------|
A------------------------------------------------------------------------|
E------------------------------------------------------------------------|

E-------9-9\8--------------------------------------------------------|
B-------9-9\8---8------13~~-15-13-15-15b~~-r15-13-16^15^13-16^15^13--|
G-------6-6\5-5---5\-------------------------------------------------|
D--5-6~-6-6\5--------------------------------------------------------|
A--------------------------------------------------------------------|
E--------------------------------------------------------------------|

E------------------------------------------------------------------------|
B--16^15^13-16^15^13-16^15^13-16^15^13-16^15^13-16^15^13-13-15-16-18-20--|
G---------------------------------------------------------/--/--/--/--/--|
D---------------------------------------------------------/--/--/--/--/--|
A------------------------------------------------------------------------|
E------------------------------------------------------------------------|

tremolo pick those last notes there, and bend the last note wildly.
listen to the lp to hear how long to play each note.

another chorus, end on C.

-------------------------------------------------
THE BUTTHOLE SURFERS GUITAR/BASS TAB ARCHIVE:
http://www.islandnet.com/~mustang/1401/index.html
-------------------------------------------------
Comments