Butthole Surfers - Birds Chords & Tabs

 

Birds Chords & Tabs

Butthole Surfers Chords & Tabs

Version: 2 Type: Tab 0 ratings
1 star 2 stars 3 stars 4 stars 5 stars
comments

Birds Tab

BIRDS by the Butthole Surfers (Electriclarryland) Song 1

E--------------------------------|
B--------------------------------|
G---7b--5^7----------------5-----|
D-----------7~~~--5-5^7~~----7~--|
A--------------------------------|
E--------------------------------|

VERSE:

E-------------------|
B-------------------|
G--6-6--9--9--9--9--|
D--7-7-10-10-10-10--|
A--7-7-10-10-10-10--|
E--5-5--8--8--8--8--|

PRE-CHORUS:

E------------------------------------|
B------------------------------------|
G------------------------------------|
D--7-7-7-7-7-7-7-7-7-7-7-7-10-10-10--|
A--7-7-7-7-7-7-7-7-7-7-7-7-10-10-10--| PALM MUTE A CHORD...
E--5-5-5-5-5-5-5-5-5-5-5-5--8--8--8--|

CHORUS:

E-----------------------------------|
B-----------------------------------|
G--7-7-7-7-7-7-7-7-5-5-5-5-5-5-5-5--|
D--7-7-7-7-7-7-7-7-5-5-5-5-5-5-5-5--|
A--5-5-5-5-5-5-5-5-3-3-3-3-3-3-3-3--|
E-----------------------------------|

SOLO:
[ Tab from: http://www.guitartabs.cc/tabs/b/butthole_surfers/birds_tab_ver_2.html ]
E------------------------------------------------------|
B--5-8-5-8-5-8-5-5-8-5-8b~~-w/ bar --8-5-5~~\ w/ bar --|
G--/---/---/---/---------------------------------------|
D--/---/---/---/---------------------------------------|
A------------------------------------------------------|
E------------------------------------------------------|

E--5-8-5------------------------------------------------|
B--/---/-8-5--------------------------------------------|
G--/---/-----7-5-7-5-7-5-7-5----------------------------|
D--------------/---/---------7-5------------------------|
A--------------/---/-------------7-5-3-5-3--------------|
E------------------------------------------5-3-5-3-5~~--|

E-----------------------------------------------|
B--5-8-5-8-5-8-5-5-8-5-8b~~-5--5-8-5-8-5--------|
G--/---/---/---/-------------------------7-5~~--|
D--/---/---/---/--------------------------------|
A-----------------------------------------------|
E-----------------------------------------------|

E------------------------------------------------|
B--5-8-5------5-5-5-8----------------------------|
G--/-----7-5~---------5-7-5-5-7-5-7-5-7-5-7b~~~~-| w/ bar
D--/------------------------/---/---/------------|
A------------------------------------------------|
E------------------------------------------------|
Comments