Butterfly Boucher - Life Is Short Chords & Tabs

 

Life Is Short Chords & Tabs

Butterfly Boucher Chords & Tabs

Version: 1 Type: Tab 0 ratings
1 star 2 stars 3 stars 4 stars 5 stars
comments

Life Is Short Tab

   
Author - Olivia Plas
-03/02/05-
Artist: Butterfly Boucher
Song title: Life is short

One of the best new acts, she's phenomenal on stage
The rythm isn't so difficult to figure out.
Intro/VerseTh

Signs: (D)=Down  (U)=Up   (v)=vibrato

       (D) (U) (D)  (U)(D)(U)(D)(U)
|-------4---4---4--|-4--4--4--4--4--|
|-------5---5---5--|-5--5--5--5--5--|
|-------6---6---6--|-6--6--6--6--6--|
|-------6---6---6--|-6--6--6--6--6--|  C#m            When it doen't rain...
|-------4---4---4--|-4--4--4--4--4--|
|-------4---4---4--|-4--4--4--4--4--|

       (D) (U) (D)  (U)(D)(U)(D)(U)
|-------2---2---2--|-2--2--2--2--2--|
|-------2---2---2--|-2--2--2--2--2--|
|-------3---3---3--|-3--3--3--3--3--|
|-------4---4---4--|-4--4--4--4--4--|  F#             Yeah the cookie crumbles...
|-------4---4---4--|-4--4--4--4--4--|
|-------2---2---2--|-2--2--2--2--2--|

       (D) (U) (D)  (U)(D)(U)(D)(U)
|-------4---4---4--|-4--4--4--4--4--|
|-------5---5---5--|-5--5--5--5--5--|
|-------6---6---6--|-6--6--6--6--6--|
|-------6---6---6--|-6--6--6--6--6--|  C#m             All things said...
|-------4---4---4--|-4--4--4--4--4--|
|-------4---4---4--|-4--4--4--4--4--|
[ Tab from: http://www.guitartabs.cc/tabs/b/butterfly_boucher/life_is_short_tab.html ]
       (D) (U) (D)  (U)(D)(U)(D)(U)
|-------5---5---5--|-5--5--5--5--5--|
|-------5---5---5--|-5--5--5--5--5--|
|-------6---6---6--|-6--6--6--6--6--|
|-------7---7---7--|-7--7--7--7--7--|  A               Life is short  (same thing for
|-------7---7---7--|-7--7--7--7--7--|                  the rest of the lyrics)
|-------5---5---5--|-5--5--5--5--5--|


       (D) (U) (D)  (U)(D)(U)(D)(U)
|-------4---4---4--|-4--4--4--4--4--|
|-------5---5---5--|-5--5--5--5--5--|
|-------6---6---6--|-6--6--6--6--6--|
|-------6---6---6--|-6--6--6--6--6--|  C#m
|-------4---4---4--|-4--4--4--4--4--|
|-------4---4---4--|-4--4--4--4--4--|

       (D) (U) (D)  (U)(D)(U)(D)(U)
|-------2---2---2--|-2--2--2--2--2--|
|-------2---2---2--|-2--2--2--2--2--|
|-------3---3---3--|-3--3--3--3--3--|
|-------4---4---4--|-4--4--4--4--4--|  F#
|-------4---4---4--|-4--4--4--4--4--|
|-------2---2---2--|-2--2--2--2--2--|

Then comes the chorus, I had some difficulties to figure it out, considering that
I had to make it sound as similar as possible as the album version (I've seen her
performing live but I can't remember this part).

Play it like a solo.


|---------------------|----------------|
|--7(v)/4(v)----------|-7(v)/4(v)------|
|--7(v)/4(v)-----6-9--|-7(v)/4(v)------|
|------------6-7------|----------------|  Oh Oh Oh Could this be the day I've
|---------------------|----------------|  waited for..
|---------------------|----------------|

IF YOU HAVE ANY QUESTIONS OR SUGGESTIONS send me an e-mail at cs_virus@hotmail.com
PLEASE SEND ANY CORRECTIONS!!!!
Comments