Butterfingers - Vio-pipe Chords & Tabs

 

Vio-pipe Chords & Tabs

Butterfingers Chords & Tabs

Version: 2 Type: Tab 0 ratings
1 star 2 stars 3 stars 4 stars 5 stars
comments

Vio-pipe Tab

   
 Vio-pipe - Butterfingers
 ========================
 Tune 1/2 a step down (only for the lead/solo)


 this is the bass tab......and it plays until the song finishes........
 -------------------------------------------------------------------------|
 -------------------------------------------------------------------------|
 -------------------------------------------------------------------------|
 -------------------------------------------------------------------------|
 ------------------------------------4-4-4-4--4-4-4-4--0-0-0-0--0-0-0-0---|
 0-0-0-0--0-0-0-0--0-0-0-0--0-0-0-0---------------------------------------|

 the violin and the beg pipe solo starts here......
 12--0-2-4--0-2-4-2--0-2-4-2--0-2-4-2--0-4-7-4--0-4-7-4--0-2-4-2--0-2-4-2-|
 -------------------------------------------------------------------------|
 -------------------------------------------------------------------------|
 -------------------------------------------------------------------------|
 -------------------------------------------------------------------------|
 -------------------------------------------------------------------------|

 0-9-7-7--0-9-7-7--0-9-7-7--0-9-7-7--0-4-4-7-4--0-4-7-4--0-2-4-2--0-2-4-2-|
 -------------------------------------------------------------------------|
 -------------------------------------------------------------------------|
 -------------------------------------------------------------------------|
 -------------------------------------------------------------------------|
 -------------------------------------------------------------------------|

 0-5-4-4--0-5-4-4--0-5-4-4--0-5-4-4--0-9-7-7--0-9-7-7--0-4-4-7-4--0-4-7-4-|
 -------------------------------------------------------------------------|
 -------------------------------------------------------------------------|
 -------------------------------------------------------------------------|
 -------------------------------------------------------------------------|
 -------------------------------------------------------------------------|

 0-2-4-2--0-2-4-2--0-2-4-2--0-2-4-2--0-0-2-4--0-2-4-2--0-2-2-2--2-2-2-2---|
 -------------------------------------------------------------------------|
 -------------------------------------------------------------------------|
 -------------------------------------------------------------------------|
 -------------------------------------------------------------------------|
 -------------------------------------------------------------------------|

Rhythm joins.........

 Em................................Ab................A....................
 0-2-4--0-2-4-2--0-2-4-2--0-2-4-2--0-4-7-4--0-4-7-4--0-2-4-2--0-2-4-2-----|
 -------------------------------------------------------------------------|
 -------------------------------------------------------------------------|
 -------------------------------------------------------------------------|
 -------------------------------------------------------------------------|
 -------------------------------------------------------------------------|

 Em................................Ab................A....................
 0-9-7-7--0-9-7-7--0-9-7-7--0-9-7-7--0-4-4-7-4--0-4-7-4--0-2-4-2--0-2-4-2-|
 -------------------------------------------------------------------------|
 -------------------------------------------------------------------------|
 -------------------------------------------------------------------------|
 -------------------------------------------------------------------------|
 -------------------------------------------------------------------------|

 Em................................Ab................A....................
 0-5-4-4--0-5-4-4--0-5-4-4--0-5-4-4--0-9-7-7--0-9-7-7--0-4-4-7-4--0-4-7-4-|
 -------------------------------------------------------------------------|
 -------------------------------------------------------------------------|
 -------------------------------------------------------------------------|
 -------------------------------------------------------------------------|
 -------------------------------------------------------------------------|
[ Tab from: http://www.guitartabs.cc/tabs/b/butterfingers/vio_pipe_tab_ver_2.html ]
 Em................................Ab................A....................
 0-2-4-2--0-2-4-2--0-2-4-2--0-2-4-2--0-0-2-4--0-2-4-2--0-0-2-4---0-2-4-2--|
 -------------------------------------------------------------------------|
 -------------------------------------------------------------------------|
 -------------------------------------------------------------------------|
 -------------------------------------------------------------------------|
 -------------------------------------------------------------------------|

 Em................................Ab................A....................
 0-0-2-4--0-2-4-2--0-2-4-2--0-2-4-2--0-4-7-4--0-4-7-4--0-2-4-2--0-2-4-2---|
 -------------------------------------------------------------------------|
 -------------------------------------------------------------------------|
 -------------------------------------------------------------------------|
 -------------------------------------------------------------------------|
 -------------------------------------------------------------------------|

 Em................................Ab................A....................
 0-9-7-7--0-9-7-7--0-9-7-7--0-9-7-7--0-4-4-7-4--0-4-7-4--0-2-4-2--0-2-4-2-|
 -------------------------------------------------------------------------|
 -------------------------------------------------------------------------|
 -------------------------------------------------------------------------|
 -------------------------------------------------------------------------|
 -------------------------------------------------------------------------|

 Em................................Ab................A....................
 0-5-4-4--0-5-4-4--0-5-4-4--0-5-4-4--0-9-7-7--0-9-7-7--0-4-4-7-4--0-4-7-4-|
 -------------------------------------------------------------------------|
 -------------------------------------------------------------------------|
 -------------------------------------------------------------------------|
 -------------------------------------------------------------------------|
 -------------------------------------------------------------------------|

 Em................................Ab................A....................
 0-2-4-2--0-2-4-2--0-0-2-4--0-2-4-2--0-0-2-4---0-2-4-2--------------------|
 -------------------------------------------------------------------------|
 -------------------------------------------------------------------------|
 -------------------------------------------------------------------------|
 -------------------------------------------------------------------------|
 -------------------------------------------------------------------------|

 Em................................Ab................A....................
 0-0-2-4--0-2-4-2--0-2-4-2--0-2-4-2--0-4-7-4--0-4-7-4--0-2-4-2--0-2-4-2---|
 -------------------------------------------------------------------------|
 -------------------------------------------------------------------------|
 -------------------------------------------------------------------------|
 -------------------------------------------------------------------------|
 -------------------------------------------------------------------------|

 Em................................Ab................A....................
 0-9-7-7--0-9-7-7--0-9-7-7--0-9-7-7--0-4-4-7-4--0-4-7-4--0-2-4-2--0-2-4-2-|
 -------------------------------------------------------------------------|
 -------------------------------------------------------------------------|
 -------------------------------------------------------------------------|
 -------------------------------------------------------------------------|
 -------------------------------------------------------------------------|

 Fades.............................until the end of song..................

 Em.......................................................................
 0-5-4-4--0-5-4-4--0-5-4-4--0-5-4-4--0-9-7-7--0-9-7-7--0-4-4-7-4--0-4-7-4-|
 -------------------------------------------------------------------------|
 -------------------------------------------------------------------------|
 -------------------------------------------------------------------------|
 -------------------------------------------------------------------------|
 -------------------------------------------------------------------------|

 0-2-4-2--0-2-4-2--0-2-4-2--0-2-4-2--0-0-2-4--0-2-4-2--0-0-2-4---0-2-4-2--|
 -------------------------------------------------------------------------|
 -------------------------------------------------------------------------|
 -------------------------------------------------------------------------|
 -------------------------------------------------------------------------|
 -------------------------------------------------------------------------|

      Em  Ab A
    e- 0  0  0
    B- 0  0  0
    G- 0  0  0
    D- 2  6  7
    A- 2  6  7
    E- 0  4  5
Comments