Butterfingers - Stolen Chords & Tabs

 

Stolen Chords & Tabs

Butterfingers Chords & Tabs

Version: 1 Type: Tab 0 ratings
1 star 2 stars 3 stars 4 stars 5 stars
comments

Stolen Tab

   
Intro 4x

E--2-2-3-2--2-2-2-3-2-0--------0-------------------|
B------------------------3-2-3---------------------|
G--------------------------------------------------|
D--------------------------------------------------|
A--------------------------------------------------|
E--------------------------------------------------|

Verse 8x
B A G E
E--------------------------------------------------|
B--------------------------------------------------|
G--------------------------------------------------|
D--------------------------------------------------|
A--9--9--9---7--7--7---5--5--5---2--2--2-----------|
E--7--7--7---5--5--5---3--3--3---0--0--0-----------|

Bridge

F# G A G F#
E--------------------------------------------------|
B--------------------------------------------------|
G--------------------------------------------------|
D--------------------------------------------------|
A--4--4--4---5--5--5---7--7--7---5--5--5---4--4--4-|
E--2--2--2---3--3--3---5--5--5---3--3--3---2--2--2-|

G A
E--------------------------------------------------|
B--------------------------------------------------|
G--------------------------------------------------|
D--------------------------------------------------|
A--5--5--5---7--7--7-------------------------------|
E--3--3--3---5--5--5-------------------------------|

Chorus (What in the world what is like....) 3x

E--------------------------------------------------|
B--------------------------------------------------|
G--------------------------------------------------|
D--------------------------------------------------|
A--9--9--9---4--4--4---5--5--5---7--7--7-----------|
E--7--7--7---2--2--2---3--3--3---5--5--5-----------|
[ Tab from: http://www.guitartabs.cc/tabs/b/butterfingers/stolen_tab.html ]
(What in the world did you do....) 4x Why.......
E--------------------------------------------------|
B--------------------------------------------------|
G--------------------------------------------------|
D--------------------------------------------------|
A--9--9--9---4--4--4---5--5--5---------------------|
E--7--7--7---2--2--2---3--3--3---------------------|

Repeat intro and verse

Solo:

E--2-2-3-2--2-2-2-3-2-0--------0-------------------|
B------------------------3-2-3---------------------|
G--------------------------------------------------|
D--------------------------------------------------|
A--------------------------------------------------|
E--------------------------------------------------|

E--2-2-3-2--2-2-2-3-2-0--------0-------------------|
B------------------------3-2-3---------------------|
G--------------------------------------------------|
D--------------------------------------------------|
A--------------------------------------------------|
E--------------------------------------------------|

E--2-2-3-2--2-2-2-3-2-0--------0-------------------|
B------------------------3-2-3---------------------|
G--------------------------------------------------|
D--------------------------------------------------|
A--------------------------------------------------|
E--------------------------------------------------|

E--2-2-3-2--2-2-2-3-2-0--------0-2-3-2-0-------0---|
B------------------------3-2-3-----------3-2-3-----|
G--------------------------------------------------|
D--------------------------------------------------|
A--------------------------------------------------|
E--------------------------------------------------|


E--2-3-2-0-------0-2-3-5-3-2-3-2-0-2-3-2-0-------0-----|
B----------3-2-3---------------------------3-2-3-------|
G------------------------------------------------------|
D------------------------------------------------------|
A------------------------------------------------------|
E------------------------------------------------------|

E--2-3-2-0-------0-2-3-2-0-------0-2-3-5-3-2-0-2-0-0---|
B----------3-2-3-----------3-2-3-----------------------|
G------------------------------------------------------|
D------------------------------------------------------|
A------------------------------------------------------|
E------------------------------------------------------|

Repeat Bridge and Chorus
Comments