Butterfingers - Love Chords & Tabs

 

Love Chords & Tabs

Butterfingers Chords & Tabs

Version: 1 Type: Tab 0 ratings
1 star 2 stars 3 stars 4 stars 5 stars
comments

Love Tab

   
Drop D : D A D G B E

Intro : Drum Beat

Yeahhhhhhhh (Intro Guitar 4X)

E--------------------------------------------------|
B--------------------------------------------------|
G--------------------------------------------------|
D--------------------------------------------------|
A---2---4---2---2---0---2---5---5---0---0----------|
D---2---4---2---2---0---2---5---5---0---0----------|

Verse :

Bass:

Minimized...

E--------------------------------------------------|
B--------------------------------------------------|
G--------------------------------------------------|
D--------------------------------------------------|
A--------------------------------------------------|
D---2---4---2-------0---2---5---0------------------|


Fall in love...
E--------------------------------------------------|
B--------------------------------------------------|
G--------------------------------------------------|
D--------------------------------------------------|
A---2---4---2---2---0---2---5---5---0---0----------|
D---2---4---2---2---0---2---5---5---0---0----------|


Out on the cloud  3X                    Downing on

    C5
E---------------------------------------------------|
B---------------------------------------------------|
G---------------------------------------------------|
D---5--5--5--5--------------------------------------|
A---3--3--3--3--------------------------------------|
D---------------------------------------------------|


     you        Ask me.....4x
E---------------------------------------------------|
B---------------------------------------------------|
G---------------------------------------------------|
D---9---7-------------------------------------------|
A---7---5------5---7--------------------------------|
D--------------5---7--------------------------------|


The great tune 2x

E---------------------------------------------------|
B---------------------------------------------------|
G---------------------------------------------------|
D-----------------5---4---2-------------------------|
A-------2-------------------------------------------|
D---2-----------------------------------------------|

E---------------------------------------------------|
B---------------------------------------------------|
G---------------------------------------------------|
D-----------------7-----7--5--4---------------------|
A----------5----------------------------------------|
D---0---5------------5------------------------------|
[ Tab from: http://www.guitartabs.cc/tabs/b/butterfingers/love_tab.html ]
E---------------------------------------------------|
B---------------------------------------------------|
G---------------------------------------------------|
D-------2---5---4---2----7------5------4-0----------|
A---3----------------------0-0----0-0-------|-2-----|
D-------------------------------------------|-2-----|

E---------------------------------------------------|
B---------------------------------------------------|
G---------------------------------------------------|
D---------------------------------------------------|
A------9---7---5---7---5---4---5---4----------------|
D------9---7---5---7---5---4---5---4----------------|

2x
E--------------------------------------------------|
B--------------------------------------------------|
G--------------------------------------------------|
D--------------------------------------------------|
A---2---4---2---2---0---2---5---5---0---0----------|
D---2---4---2---2---0---2---5---5---0---0----------|

Bass:

Sacrificed...
E--------------------------------------------------|
B--------------------------------------------------|
G--------------------------------------------------|
D--------------------------------------------------|
A--------------------------------------------------|
D---2---4---2-------0---2---5---0------------------|

Fall in love...
E--------------------------------------------------|
B--------------------------------------------------|
G--------------------------------------------------|
D--------------------------------------------------|
A---2---4---2---2---0---2---5---5---0---0----------|
D---2---4---2---2---0---2---5---5---0---0----------|

Then chorus and so on...so on......

The last part before the drum solo
E---------------------------------------------------|
B---------------------------------------------------|
G---------------------------------------------------|
D---------------------------------------------------|
A------9---7---5---7---5---4---5---4----------------|
D------9---7---5---7---5---4---5---4----------------|

E--------------------------------------------------|
B--------------------------------------------------|
G--------------------------------------------------|
D--------------------------------------------------|
A---2---4---2---2---0---2---7----------------------|
D---2---4---2---2---0---2---7----------------------|

Then drum solo for a while........finally.......

E--------------------------------------------------|
B--------------------------------------------------|
G--------------------------------------------------|
D--------------------------------------------------|
A---2---4---2--------------------------------------|
D---2---4---2--------------------------------------|

Everything is just the same. Make up your mind to arrange it.
Comments