Butterfingers - Kabus Ribut Chords & Tabs

 

Kabus Ribut Chords & Tabs

Butterfingers Chords & Tabs

Version: 1 Type: Tab 0 ratings
1 star 2 stars 3 stars 4 stars 5 stars
comments

Kabus Ribut Tab

   
title: kabus ribut
band: butterfingers
album:selamat tinggal dunia
transcribed by:johanfariz (freedom_fighter85@hotmail.com)

standard tuning
capo on 2nd fret(for 1st and 2nd guitar)

this song actually has 3 layers of guitars which are:
1st guitar : an acoustic guitar
2nd guitar : the appregios plucking part
3rd guitar : the lead guitar (solo)

note:

~ = let ring

but i only managed to tabbed down the 1st and 2nd guitar part. the lead will come later.
i am not sure its 100% accurate (but it sounds fine to me) so why dont you
give it a try.any comments, please send your love and hate to my email. enjoy.

listen to the song while you try this out.

intro:

gtr2

e|-0~-----------------------------------------0~-|
B|-1~-0-------1-0----1-0----1--1--1--0--0--0--1~-|
G|-0~--0-----2---2--2---2----0--0-----0--0----2~-|
D|-2~---2---2------2----------2--2-----0--0---2~-|
A|-3~----3-0--------------3---------2------------|
E|-----------------------------------------------|
                                              let ring the last note
verse:

gtr 1:

C  Em Am 

gtr 2:
[ Tab from: http://www.guitartabs.cc/tabs/b/butterfingers/kabus_ribut_tab.html ]
e|--------------------------------------------------------0~-|
B|--1--1---1--0--0--0-----1-0----1-0----1--1--1--0--0--0--1~-|
G|---0--0------0--0------2---2--2---2----0--0-----0--0----2~-|
D|----2--2------0--0----2------2----------2--2-----0--0---2~-|
A|-3---------2---------0--------------3---------2------------|
E|-----------------------------------------------------------| 2x

pre chorus: "derusan kabus ribut yg menimpa...."

strum this chord..again.please refer to the song.

Gm Am Gm Am Gm F (last chord let ring)

chorus:

gtr 1:

C Em Am Gm F 

gtr 2:

e|----------------------------------------------------------------------|
B|--1--1--1--1--0---------0--0--0--0--0---------------------------------|
G|---0--0--0------2-0-2----0--0--0--0--0-----0----0--0----0----0--0--2~-|
D|----2--2--2--2------------0--0--0--0----2-3--2-3--3--2-3--2-3--3---3~-|
A|-3---------------------2-------------------------------------------3~-|
E|-------------------------------------------------------------------1~-| 2X

                                         (*-----------------------------)

then comes the second verse which has a bit of variation at the part
"sekalipun beralun..." play *

bridge:

gtr 1 play this chord

C (let ring)  C Em C (this requires you to change chords fastly) 3x


the solo part strum the chorus chords downstrokes.

and the rest of the song just slightly the same with several variations
that you might figure it out while you listen to the song.actualy there are some parts
i didnt get yet. i will figure out and submit it later.good luck dudes.
Comments