Butterfingers - Get Up Outta The Dirt Chords & Tabs

 

Get Up Outta The Dirt Chords & Tabs

Butterfingers Chords & Tabs

Version: 1 Type: Bass Tab

Get Up Outta The Dirt Bass Tab

   
Butterfingers - Get Up Outta The Dirt Bass Tab (transcription By uRsOuL)
   

    This tab is not intended to be accurate or official tab of the artist,
    but is merely A by-ear transcription. This tab is to be used for study, 
    skill development, and scholarship only. 
    

[ Tab from: http://www.guitartabs.cc/tabs/b/butterfingers/get_up_outta_the_dirt_btab.html ]
  RIFF A
   G--------------------------------------------------------------------------------|
   D--------------------------------------------------------------------------------|
   A--77-55--------------------------------------------5---77-55--------------------| X 2
   E--------77-66-5-3--66-55-3--55-3-0---00-33-55--6-7-----------77-66-55-3---------|
   then
   verse 1
   G-------------------------------|
   D-------------------------------| X 9
   A------7-10--------10-7----7----|
   E-000-0-------000-0-----10------|


  Then verse 2 is
   G------------------------------|
   D------------------------------|
   A---7-----5-5555-5-7-----------|
   E-----5-7----------------------|



   And some slide b4 rift "A" second time round on the E, think its 12th down

  love the song and i just got a bass!
   all worked out by ear, so if anyone has anything to add or correct, plz email me @
  
   maffis98@yahoo.com.au