Busted - Year 3000 Chords & Tabs

 

Year 3000 Chords & Tabs

Busted Chords & Tabs

Version: 4 Type: Tab 0 ratings
1 star 2 stars 3 stars 4 stars 5 stars
comments

Year 3000 Tab

I've come to save you all!

most of the tabs and chords are good but none have really told how you really play the
song like busted! so here you are!

Intro x2

e------7-7---------------------------4-4-4-4---|
b------7-7---------11-11-------9-9---4-5-5-4---|
g------8-8---------11-11-------9-9---4-4-4-4---|
d------9-9---11-11-11-11---9-9-9-9---4-6-6-6---|
a--9-9-------9--9----------7-7-------4-4-4-4---|
E--7-7-----------------------------------------|

Verse x3

e----------2--2---0--0---0--2--|
b---4--4---2--2---0--0---0--2--|
g---4--4---3--3---1--1---1--3--|
d---4--4---4--4---2--2---2--4--|
a---2--2---4--4---2--2---2--4--|
E----------2--2---0--0---0--2--|

Pre-Chorus

e--4-4-4-4-4-4-4-4--2-2-2-2-2-2-2-2--0-0-0-0-0-0-0-0-0-0-0-0-0-0-0-0--|
b--4-4-4-4-4-4-4-4--2-2-2-2-2-2-2-2--0-0-0-0-0-0-0-0-0-0-0-0-0-0-0-0--|
g--4-4-4-4-4-4-4-4--3-3-3-3-3-3-3-3--1-1-1-1-1-1-1-1-1-1-1-1-1-1-1-1--|
d--6-6-6-6-6-6-6-6--4-4-4-4-4-4-4-4--2-2-2-2-2-2-2-2-2-2-2-2-2-2-2-2--|
a--6-6-6-6-6-6-6-6--4-4-4-4-4-4-4-4--2-2-2-2-2-2-2-2-2-2-2-2-2-2-2-2--|
E--4-4-4-4-4-4-4-4--2-2-2-2-2-2-2-2--0-0-0-0-0-0-0-0-0-0-0-0-0-0-0-0--|

Chorus x4

e------7-7-------4-4------0-0--0-0-0-0--|
b------7-7-------4-4------0-0--0-0-0-0--|
g------8-8-------5-5------2-2--2-2-2-2--|
d------9-9-------6-6------2-2--2-2-2-2--|
a--9-9-------6-6------1-1------1-1-1-1--|
E--7-7-------4-4------0-0------0-0-0-0--|

Verse x3

e----------2--2---0--0---0--2--|
b---4--4---2--2---0--0---0--2--|
g---4--4---3--3---1--1---1--3--|
d---4--4---4--4---2--2---2--4--|
a---2--2---4--4---2--2---2--4--|
E----------2--2---0--0---0--2--|

Pre-Chorus

e--4-4-4-4-4-4-4-4--2-2-2-2-2-2-2-2--0-0-0-0-0-0-0-0-0-0-0-0-0-0-0-0--|
b--4-4-4-4-4-4-4-4--2-2-2-2-2-2-2-2--0-0-0-0-0-0-0-0-0-0-0-0-0-0-0-0--|
g--4-4-4-4-4-4-4-4--3-3-3-3-3-3-3-3--1-1-1-1-1-1-1-1-1-1-1-1-1-1-1-1--|
d--6-6-6-6-6-6-6-6--4-4-4-4-4-4-4-4--2-2-2-2-2-2-2-2-2-2-2-2-2-2-2-2--|
a--6-6-6-6-6-6-6-6--4-4-4-4-4-4-4-4--2-2-2-2-2-2-2-2-2-2-2-2-2-2-2-2--|
E--4-4-4-4-4-4-4-4--2-2-2-2-2-2-2-2--0-0-0-0-0-0-0-0-0-0-0-0-0-0-0-0--|

Chorus x4

e------7-7-------4-4------0-0--0-0-0-0--|
b------7-7-------4-4------0-0--0-0-0-0--|
g------8-8-------5-5------2-2--2-2-2-2--|
d------9-9-------6-6------2-2--2-2-2-2--|
a--9-9-------6-6------1-1------1-1-1-1--|
E--7-7-------4-4------0-0------0-0-0-0--|


Bridge
[ Tab from: http://www.guitartabs.cc/tabs/b/busted/year_3000_tab_ver_4.html ]
e--------------------------|
b--------------------------|
g--------------------------|
d-------11-11--9-9--9-11---|
a--9-9--9--9---7-7--7-9----|
E--7-7---------------------|

e--------------------------|
b--------------------------|
g--------------------------|
d-------11-11--9-9---------|
a--9-9--9--9---7-7---------|
E--7-7---------------------|

e--------------------------|
b--------------------------|
g--------------------------|
d-------11-11--9-9--9-11---|
a--9-9--9--9---7-7--7-9----|
E--7-7---------------------|

e---------------------------------|
b---------------------------------|
g---------------------------------|
d-------11-11--9-9-9-9-9-9-11-11--|
a--9-9--9--9---7-7-7-7-7-7-9--9---|
E--7-7----------------------------|

Pre-Chorus

e--4-4-4-4-4-4-4-4--2-2-2-2-2-2-2-2--0-0-0-0-0-0-0-0-0-0-0-0-0-0-0-0--|
b--4-4-4-4-4-4-4-4--2-2-2-2-2-2-2-2--0-0-0-0-0-0-0-0-0-0-0-0-0-0-0-0--|
g--4-4-4-4-4-4-4-4--3-3-3-3-3-3-3-3--1-1-1-1-1-1-1-1-1-1-1-1-1-1-1-1--|
d--6-6-6-6-6-6-6-6--4-4-4-4-4-4-4-4--2-2-2-2-2-2-2-2-2-2-2-2-2-2-2-2--|
a--6-6-6-6-6-6-6-6--4-4-4-4-4-4-4-4--2-2-2-2-2-2-2-2-2-2-2-2-2-2-2-2--|
E--4-4-4-4-4-4-4-4--2-2-2-2-2-2-2-2--0-0-0-0-0-0-0-0-0-0-0-0-0-0-0-0--|

Chorus x4 (Played by synth so just play this to make it sound good 
           else don't play anything at all)

e-------------------------------------|
b-------------------------------------|
g-------------------------------------|
d------9--------6--------2-------2----|
a----9---9----6---6----1---1---1---1--|
E--7--------4--------0-------0--------|

Chorus x4

e------7-7-------4-4------0-0--0-0-0-0--|
b------7-7-------4-4------0-0--0-0-0-0--|
g------8-8-------5-5------2-2--2-2-2-2--|
d------9-9-------6-6------2-2--2-2-2-2--|
a--9-9-------6-6------1-1------1-1-1-1--|
E--7-7-------4-4------0-0------0-0-0-0--|

Then Sing Chorus x4 Over

e------7-7---------------------------4-4-4-4---|
b------7-7---------11-11-------9-9---4-5-5-4---|
g------8-8---------11-11-------9-9---4-4-4-4---|
d------9-9---11-11-11-11---9-9-9-9---4-6-6-6---|
a--9-9-------9--9----------7-7-------4-4-4-4---|
E--7-7-----------------------------------------|

Outro
e---------------------|
b---------------------|
g---------------------|
d-------11-11--9-9-9--|
a--9-9--9--9---7-7-7--|
E--7-7----------------|

And That's it! This song rocks! It's Busted's Anthem!
Comments