Busted - Year 3000 Chords & Tabs

 

Year 3000 Chords & Tabs

Busted Chords & Tabs

Version: 3 Type: Tab 0 ratings
1 star 2 stars 3 stars 4 stars 5 stars
comments

Year 3000 Tab

                YEAR 3000  by  Busted

Tabbed by:  Rob
Email:      hmm102@hotmail.com


INTRO:

e|------2^4--------------------------------------
B|--4-4-----4-4-----4^6---------3^4-------4---3--
G|--------------4-4-----4-4-2-2-----2-2-2---4----
D|-----------------------------------------------
A|-----------------------------------------------
E|-----------------------------------------------

e|------2----------------------------------------
B|--------4-------2---------0--------------------
G|--4-4-----4-------3---------1------------------
D|------------4-4-----4-2-2-----2---2---0--------
A|-----------------------------------------------
E|-----------------------------------------------



VERSES and CHORUS:
[ Tab from: http://www.guitartabs.cc/tabs/b/busted/year_3000_tab_ver_3.html ]
e|---------------------------------
B|---------------------------------
G|--4-4----------------------------
D|--4-4-----4-4-----2-2-----2---4--  repeat 4 times
A|--2-2-----4-4-----2-2-----2---4--
E|----------2-2-----0-0-----0---2--



PRE-CHORUS: 

e|-------------------------------------
B|-------------------------------------
G|-------------------------------------
D|--6-----6-4-----4-2---------------4--
A|--6-----6-4-----4-2---------------2--
E|--4-----4-2-----2-0---------------2--



ENDING:

Chorus x 3 then: 

e|-------------------------
B|-------------------------
G|--4-4--------------------
D|--4-4-----4-4-----4^2-2--
A|--2-2-----4-4-----2^2-2--
E|----------2-2-----2^0-0--


this my first tab...easy enough.  aint a huge fan of busted
theyre ok but bands like foo fighters, nirvana, rhcp, and
most rock bands are better.  blazin squad SUCK
Comments