Busted - Year 3000 Chords & Tabs

 

Year 3000 Chords & Tabs

Busted Chords & Tabs

Version: 2 Type: Tab 0 ratings
1 star 2 stars 3 stars 4 stars 5 stars
comments

Year 3000 Tab

-------------------------------------------------------------------------------
			     Year 3000 - Busted
-------------------------------------------------------------------------------

Tabbed by:amyb
Email:u990801@lycos.co.uk

Tuning:

Verse
e|-----22--00--02------22--00--02------22--00--02----------------------------|
B|-22--------------22--------------22----------------------------------------|
G|---------------------------------------------------------------------------|
D|---------------------------------------------------------------------------|
A|---------------------------------------------------------------------------|
E|---------------------------------------------------------------------------|

Bridge
e|-444444442222222200000000--------------------------------------------------|
B|---------------------------------------------------------------------------|
G|---------------------------------------------------------------------------|
D|---------------------------------------------------------------------------|
A|---------------------------------------------------------------------------|
E|---------------------------------------------------------------------------|

Chorus
e|-----22--00--02------22--00--02------22--00--02------22--00--02------------|
B|-22--------------22--------------22--------------22------------------------|
G|---------------------------------------------------------------------------|
D|---------------------------------------------------------------------------|
A|---------------------------------------------------------------------------|
E|---------------------------------------------------------------------------|

Verse
e|-----22--00--02------22--00--02------22--00--02----------------------------|
B|-22--------------22--------------22----------------------------------------|
G|---------------------------------------------------------------------------|
D|---------------------------------------------------------------------------|
A|---------------------------------------------------------------------------|
E|---------------------------------------------------------------------------|
[ Tab from: http://www.guitartabs.cc/tabs/b/busted/year_3000_tab_ver_2.html ]
Bridge
e|-444444442222222200000000--------------------------------------------------|
B|---------------------------------------------------------------------------|
G|---------------------------------------------------------------------------|
D|---------------------------------------------------------------------------|
A|---------------------------------------------------------------------------|
E|---------------------------------------------------------------------------|

Chorus
e|-----22--00--02------22--00--02------22--00--02------22--00--02------------|
B|-22--------------22--------------22--------------22------------------------|
G|---------------------------------------------------------------------------|
D|---------------------------------------------------------------------------|
A|---------------------------------------------------------------------------|
E|---------------------------------------------------------------------------|

2nd Brige (micheal jackson bit)
e|-22--------------22--------------22--------------22------------------------|
B|-----44--22--24------44--22--24------44--22--24------44--22--24------------|
G|---------------------------------------------------------------------------|
D|---------------------------------------------------------------------------|
A|---------------------------------------------------------------------------|
E|---------------------------------------------------------------------------|

Bridge
e|-444444442222222200000000--------------------------------------------------|
B|---------------------------------------------------------------------------|
G|---------------------------------------------------------------------------|
D|---------------------------------------------------------------------------|
A|---------------------------------------------------------------------------|
E|---------------------------------------------------------------------------|

Chorus( repeat 3 times)
e|-----22--00--02------22--00--02------22--00--02------22--00--02------------|
B|-22--------------22--------------22--------------22------------------------|
G|---------------------------------------------------------------------------|
D|---------------------------------------------------------------------------|
A|---------------------------------------------------------------------------|
E|---------------------------------------------------------------------------|


Email Amy at u990801@lycos.co.uk if u've ne problems. xxx
Comments