Busted - Why Chords & Tabs

 

Why Chords & Tabs

Busted Chords & Tabs

Version: 3 Type: Tab 0 ratings
1 star 2 stars 3 stars 4 stars 5 stars
comments

Why Tab

   
                                       WHY
                              As recorded by Busted
                  (From the 2003 Album A PRESENT FOR EVERYONE)

Words and Music by Charlie Simpson & Will Simpson

          Em                 Dadd11                  C                  Gsus2
      x 7 x 0 8 0          x 5 x 0 7 x          x 3 x 0 5 x          5 5 7 x x x

        Emadd9                Csus2                 G5             Dadd11(type 2)
      2 x 4 0 x x        10 10 12 x x x        x 10 12 0 x x        x 8 11 0 x x

          Em7                 Cadd9                 Am                    G
      2 2 0 0 3 0          x 3 2 0 3 0          x 0 2 2 1 0          x 2 0 0 3 3

          A5                   E5               Em(type 2)           A5(type 2)
      7 7 7 x x x          2 2 2 x x x          2 2 2 0 0 0          x 0 2 2 5 5

          B5
      x 2 4 4 x x

Gtr I (D A D G B E) - 'Acoustic'
Gtr II (D A D G B E) - 'Electric Clean'
Gtr III (E A D G B E) - 'Solo Guitar'
Gtr IV (D A D G B E) - 'Electric Dist.'
Gtr V (D A D G B E) - 'Electric Slight dist.'
Gtr VI (D A D G B E) - 'Electric Dist.'

 Intro
  Q=77
 4/4
  Gtr I
  W           S S S S S S S S S S S S S S S S
|----------||---------------------------------|
|----------||---8-----8-----8---7-----7-----7-|
|----------||-----0-----0---------0-----0-----|
|----------||---------------------------------|
|----------||-7-----7-----7---5-----5-----5---|
|----------||---------------------------------|


  S S S S S S S S S S S S S S S S
|---------------------------------|
|---5-----5-----5---5-----5-----7-|
|-----0-----0---------0-----0-----|
|---------------------------------|
|-3-----3-----3---3-----3-----3---|
|---------------------------------|


  S S S S S S S S S S S S S S S S   S S S S S S S S S S S S S S S S
|---------------------------------|---------------------------------||
|---8-----8-----8---7-----7-----7-|---5-----5-----5---5-----5-----7-||
|-----0-----0---------0-----0-----|-----0-----0---------0-----0-----||
|---------------------------------|---------------------------------||
|-7-----7-----7---5-----5-----5---|-3-----3-----3---3-----3-----3---||
|---------------------------------|---------------------------------||


   Verse
    Gtrs I, II
    S S S S S S S S S S S S S S S S   S S S S S S S S S S S S S S S S   4x
||----------------------------------|-----------------------------------||
||o---8-----8-----8---7-----7-----7-|---5-----5-----5---5-----5-----7--o||
||------0-----0---------0-----0-----|-----0-----0---------0-----0-------||
||----------------------------------|-----------------------------------||
||o-7-----7-----7---5-----5-----5---|-3-----3-----3---3-----3-----3----o||
||----------------------------------|-----------------------------------||


 Pre-Chorus
  Gtrs I, II
  S S S S S S S S  S  S S S S S S  S
|------------------------------------|
|------------------------------------|
|-----------7---------0-----0------0-|
|-----7-------7p5-------4-----4------|
|---5-----5--------------------------|
|-5-----5----------2------2-----2----|
|
| Gtr II
| E   E   E   E   +S  S E   E   E
|------------------------------------|
|---------3-------------3-------3/---|
|-----0---------------0-----0--------|
|-4-----------4---(4)-------4--------|
|------------------------------------|
|------------------------------------|


   S  S  S  S  S  S  S  S  S   S  S  S  S  S  S   S
|---------------------------------------------------|
|---------------------------------------------------|
|---------------------------------------------------|
|-------12-------12--------------12-------12--------|
|----10-------10-------10-----10-------10--------10-|
|-10-------10-------10----10--------10-------10-----|
|
|  E     E     E     E    +S   S  E     E     E
|---------------------------------------------------|
|--------------3------------------3-----------3/----|
|--------0---------------------0--------0-----------|
|--4-----------------4----(4)-----------4-----------|
|---------------------------------------------------|
|---------------------------------------------------|


    S S S S S S S S  S  S S S S S S  S
||-------------------------------------|
||o------------------------------------|
||----------------------0-----0------0-|
||------7-----7---7-------4-----4------|
||o---5-----5--------------------------|
||--5-----5-----5----2------2-----2----|
|
|   E   E   E   E   +S  S E   E   E
||-------------------------------------|
||o---------3-------------3-------3/---|
||------0---------------0-----0--------|
||--4-----------4---(4)-------4--------|
||o------------------------------------|
||-------------------------------------|


   S  S  S  S  S  S  S  S  S   S  S  S  S  S  S   S
|-----------------------------------------------------||
|----------------------------------------------------o||
|-----------------------------------------------------||
|-------12-------12--------------12-------12----------||
|----10-------10-------10-----10-------10--------10--o||
|-10-------10-------10----10--------10-------10-------||
|
|  E     E     E     E    +S   S  E     E     E
|-----------------------------------------------------||
|--------------3------------------3-----------3/-----o||
|--------0---------------------0--------0-------------||
|--4-----------------4----(4)-----------4-------------||
|----------------------------------------------------o||
|-----------------------------------------------------||


  S S S S S S S S  S  S S S S S S  S
|------------------------------------|
|------------------------------------|
|---------------------0-----0------0-|
|-----7-----7---7-------4-----4------|
|---5-----5--------------------------|
|-5-----5-----5----2------2-----2----|
|
| E   E   E   E   +S  S E   E   E
|------------------------------------|
|---------3-------------3-------3/---|
|-----0---------------0-----0--------|
|-4-----------4---(4)-------4--------|
|------------------------------------|
|------------------------------------|


       <
  H    S S S S S S S S   S S S S S S S S S S S S S S S T T
|----------------------|-----------------------------------|
|-3----3-3-3-3-3-3-3-3-|-3-3-3-3-3-3-3-3-3-3-3-3-3-3-3-3-3-|
|-0----0-0-0-0-0-0-0-0-|-0-0-0-0-0-0-0-0-0-0-0-0-0-0-0-0-0-|
|-x----x-x-x-x-x-x-x-x-|-x-x-x-x-x-x-x-x-x-x-x-x-x-x-x-x-x-|
|-3----3-3-3-3-3-3-3-3-|-3-3-3-3-3-3-3-3-3-3-3-3-3-3-3-3-3-|
|----------------------|-----------------------------------|
|
| W                      W
|----------------------|-----------------------------------|
|----------------------|-----------------------------------|
|----------------------|-----------------------------------|
|----------------------|-----------------------------------|
|----------------------|-----------------------------------|
|----------------------|-----------------------------------|


 Chorus
  Q=159
  $
  $$
  G5               Dadd11
  Gtr I
   Q   Q   E  E  E  E    +E   Q   E  +E   E  E E
   |   |   |  |  |  |     |   |   |   |   |  | |
   /   /   /  /  /  /     /   /   /   /   /  / /

  Gtr IV
   Q   Q   E  E  E  E    +E   Q   E  +E   E  E E
|---------------------|--------------------------|
|---------------------|--------------------------|
|--0---0---0--0--0--0-|--(0)--0---0--(0)--0--0---|
|-12--12--12-12-12-12-|-(12)-12--12-(12)-12-12---|
|-10--10--10-10-10--9-|--(9)--9---9--(9)--9--9-0-|
|---------------------|------------------------0-|


  Em7         Cadd9                    G5               Dadd11
  Q  Q  E E E E   +E  Q   E +E E E E    Q   Q   E  E  E  E
  |  |  | | | |    |  |   |  | | | |    |   |   |  |  |  |
  /  /  / / / /    /  /   /  / / / /    /   /   /  /  /  /

  Q  Q  E E E E   +E  E E E  E E E E    Q   Q   E  E  E  E
|-------------3-|-(3)-3-3-3--3-3-3-3-|---------------------|
|-------------3-|-(3)-3-3-3--3-3-3-3-|---------------------|
|-------------0-|-(0)-0-0-0--0-0-0-0-|--0---0---0--0--0--0-|
|-2--2--2-2-2-x-|-(x)-x-x-x--x-x-x-x-|-12--12--12-12-12-12-|
|-2--2--2-2-2-3-|-(3)-3-3-3--3-3-3-3-|-10--10--10-10-10--9-|
|-2--2--2-2-2---|--------------------|---------------------|
|
| Gtr V
| Q  Q  Q   E E   +E  Q   E  Q   E E    Q   Q   E  Q     E
|----0--------0-|-(0)--------0-------|------3------------3-|
|-------3-------|-----3----------3---|----------3--------3-|
|-----------0---|---------0--------0-|--0----------0-----0-|
|---------------|--------------------|-------------------4-|
|-2-------------|--------------------|---------------------|
|-2-------------|--------------------|---------------------|


                              Cadd9
   +E   Q    E  +E   E  E E   Q  Q  E E E E   +E  Q   E +E E E E
    |   |    |   |   |  | |   |  |  | | | |    |  |   |  | | | |
    /   /    /   /   /  / /   /  /  / / / /    /  /   /  / / / /

   +E   Q    E  +E   E  E E   Q  Q  E E E E   +E  E E E  E E E E
|---------------------------|-3--3--3-3-3-3-|-(3)-3-3-3--3-3-3-3-|
|---------------------------|-3--3--3-3-3-3-|-(3)-3-3-3--3-3-3-3-|
|--(0)--0----0--(0)--0--0---|-0--0--0-0-0-0-|-(0)-0-0-0--0-0-0-0-|
|-(12)-12---12-(12)-12-12---|-x--x--x-x-x-x-|-(x)-x-x-x--x-x-x-x-|
|--(9)--9----9--(9)--9--9-0-|-3--3--3-3-3-3-|-(3)-3-3-3--3-2-3-2-|
|-------------------------0-|---------------|--------------------|
|
|  +E   E Q      E   E  E E   Q  Q  Q   E E   +E  Q   E  Q   Q
|--(3)--3-3------3---3--3---|----0--------0-|-(0)--------0-------|
|--(3)--3-3------3---3--3---|-------3-------|-----3----------3---|
|--(0)--0-0------0---0--0---|-----------0---|---------0----------|
|--(4)--4-4------4---4--4-0-|---------------|--------------------|
|-------------------------0-|-3-------------|--------------------|
|---------------------------|---------------|--------------------|


  G5               Dadd11
   Q   Q   E  E  E  E    +E   Q    E  +E   E  E E
   |   |   |  |  |  |     |   |    |   |   |  | |
   /   /   /  /  /  /     /   /    /   /   /  / /

   Q   Q   E  E  E  E    +E   Q    E  +E   E  E E
|---------------------|---------------------------|
|---------------------|---------------------------|
|--0---0---0--0--0--0-|--(0)--0----0--(0)--0--0---|
|-12--12--12-12-12-12-|-(12)-12---12-(12)-12-12---|
|-10--10--10-10-10--9-|--(9)--9----9--(9)--9--9-0-|
|---------------------|-------------------------0-|
|
|  Q   Q   E  Q     E    +E   E Q      E   E  E E
|------3------------3-|--(3)--3-3------3---3--3---|
|----------3--------3-|--(3)--3-3------3---3--3---|
|--0----------0-----0-|--(0)--0-0------0---0--0---|
|-------------------4-|--(4)--4-4------4---4--4-0-|
|---------------------|-------------------------0-|
|---------------------|---------------------------|


  Em7         Cadd9
  Q  Q  E E E E   +E  Q   E +E E E E
  |  |  | | | |    |  |   |  | | | |
  /  /  / / / /    /  /   /  / / / /

  Q  Q  E E E E    E  E E E  E E E E
|-------------3-|--3--3-3-3--3-3-3-3-|
|-------------3-|--3--3-3-3--3-3-3-3-|
|-------------0-|--0--0-0-0--0-0-0-0-|
|-2--2--2-2-2-x-|--x--x-x-x--x-x-x-x-|
|-2--2--2-2-2-3-|--3--3-3-3--3-3-3-3-|
|-2--2--2-2-2---|--------------------|
|
| Q  Q  Q   E E   +E  Q   E  Q   E E
|----0--------0-|-(0)--------0-------|
|-------3-------|-----3----------3---|
|-----------0---|---------0--------0-|
|---------------|--------------------|
|-2-------------|--------------------|
|-2-------------|--------------------|


                                                      To Dbl. Coda
  G5               Dadd11                           Cadd9
   Q   Q   E  E  E  E    +E   Q    E  +E   E  E E   Q   Q   E E E E
   |   |   |  |  |  |     |   |    |   |   |  | |   |   |   | | | |
   /   /   /  /  /  /     /   /    /   /   /  / /   /   /   / / / /

   Q   Q   E  E  E  E    +E   Q    E  +E   E  E E   E E E E E E E E
|---------------------|---------------------------|-3-3-3-3-3-3-3-3-|
|---------------------|---------------------------|-3-3-3-3-3-3-3-3-|
|--0---0---0--0--0--0-|--(0)--0----0--(0)--0--0---|-0-0-0-0-0-0-0-0-|
|-12--12--12-12-12-12-|-(12)-12---12-(12)-12-12---|-x-x-x-x-x-x-x-x-|
|-10--10--10-10-10--9-|--(9)--9----9--(9)--9--9-0-|-3-3-3-3-3-3-3-3-|
|---------------------|-------------------------0-|-----------------|
|
|  Q   Q   E  Q     E    +E   E Q      E   E  E E   Q   Q   Q   E E
|------3------------3-|--(3)--3-3------3---3--3---|-----0---------0-|
|----------3--------3-|--(3)--3-3------3---3--3---|---------3-------|
|--0----------0-----0-|--(0)--0-0------0---0--0---|-------------0---|
|-------------------4-|--(4)--4-4------4---4--4-0-|-----------------|
|---------------------|-------------------------0-|-3---------------|
|---------------------|---------------------------|-----------------|


                        Verse
            To Coda
                         Am
   E  Q   E +E E E E     Q   Q   E E E E   +E  E Q   E E E E
   |  |   |  | | | |     |   |   | | | |    |  | |   | | | |
   /  /   /  / / / /     /   /   / / / /    /  / /   / / / /

   E  E E E  E E E E     Q   Q   E E E E   +E  E Q   E E E E
|--3--3-3-3--3-3-3-3-||------------------|-------------------|
|--3--3-3-3--3-3-3-3-||o-----------------|-------------------|
|--0--0-0-0--0-0-0-0-||------------------|-------------------|
|--x--x-x-x--x-x-x-x-||--7---7---7-7-7-7-|-(7)-7-7---7-7-7-0-|
|--3--3-3-3--3-2-3-2-||o-7---7---7-7-7-7-|-(7)-7-7---7-7-7-0-|
|--------------------||--7---7---7-7-7-7-|-(7)-7-7---7-7-7-0-|
|
|                        Gtr VI
| +E  Q   E  E E Q       E E E E E E E E    E  E E E E E E E
|-(0)--------0-------||--7---7---7---7---|--5----5---5---5---|
|-----3--------3-0---||o---8---8---8---8-|-----8---8---8---8-|
|---------0----------||------------------|-------------------|
|--------------------||------------------|-------------------|
|--------------------||o-----------------|-------------------|
|--------------------||------------------|-------------------|


  Em            Cadd9                   Am
  Q   Q   E E E E   +E  E Q   E E E E   Q   Q   E E E E
  |   |   | | | |    |  | |   | | | |   |   |   | | | |
  /   /   / / / /    /  / /   / / / /   /   /   / / / /

  Q   Q   E E E E   +E  E E E E E E E   Q   Q   E E E E
|-----------------|-------------------|-----------------|
|-----------------|-------------------|-----------------|
|---------------5-|-(5)-5-5-5-5-5-5---|-----------------|
|-2---2---2-2-2-5-|-(5)-5-5-5-5-5-5-0-|-7---7---7-7-7-7-|
|-2---2---2-2-2-3-|-(3)-3-3-3-3-3-3-0-|-7---7---7-7-7-7-|
|-2---2---2-2-2---|-------------------|-7---7---7-7-7-7-|
|
| E E E E E E E E    E  E E E E E E E   E E E E E E E E
|-7---7---7---7---|--8----8---8-8-8---|-7---7---7---7---|
|---8---8---8---8-|-----8---8-8-8-8-8-|---8---8---8---8-|
|-----------------|-------------------|-----------------|
|-----------------|-------------------|-----------------|
|-----------------|-------------------|-----------------|
|-----------------|-------------------|-----------------|


                     1.
                          G            Cadd9
  +E E Q   E E E E    Q    Q    E E  E E   +E  E Q   E E E E
   | | |   | | | |    |    |    | |  | |    |  | |   | | | |
   / / /   / / / /    /    /    / /  / /    /  / /   / / / /
[ Tab from: http://www.guitartabs.cc/tabs/b/busted/why_tab_ver_3.html ]
   E E Q   E E E E    Q    Q    E E  E E   +E  E E E Q   E E
|------------------|---------------------|--------------------||
|------------------|---------------------|-------------------o||
|------------------|-------------------5-|-(5)-5-5-5-5---5-0--||
|--7-7-7---7-7-7-0-|--5----5----5-5--5-5-|-(5)-5-5-5-5---5-0--||
|--7-7-7---7-7-7-0-|--5----5----5-5--5-3-|-(3)-3-3-3-3---3-0-o||
|--7-7-7---7-7-7-0-|--5----5----5-5--5---|--------------------||
|
|  E E E E E E E E    E E  E E  E E  E E    E  E E E E E E E
|--5---5---5---5---|-10---10---10---10---|--8----8---8---8----||
|----8---8---8---8-|----8----8----8----8-|-----8---8---8---8-o||
|------------------|---------------------|--------------------||
|------------------|---------------------|--------------------||
|------------------|---------------------|-------------------o||
|------------------|---------------------|--------------------||


  2.
                                       D.S. al Coda
  Gtrs IV, VI
  Q  E E E E E E   E E E E E E E E   E E E E E E E E
|----------------|-----------------|-----------------||
|----------------|-----------------|-----------------||
|-7--7-7-7-7-7-7-|-7-7-7-7-7-7-7-7-|-7-7-7-7-7-7-7-7-||
|-5--5-5-5-5-5-5-|-5-5-5-5-5-5-5-5-|-5-5-5-5-5-5-5-5-||
|-3--3-3-3-3-3-3-|-3-3-3-3-3-3-3-3-|-3-3-3-3-3-3-3-3-||
|----------------|-----------------|-----------------||


   Verse
    &
    Gtrs IV, V, VI
    Q  Q  E E E E   +E  E Q  E E E E   Q  Q  E E E E
||----------------|------------------|---------------|
||o---------------|------------------|---------------|
||----------------|------------------|---------------|
||--7--7--7-7-0-2-|-(2)-2-2--2-0-2-0-|-7--7--7-7-0-2-|
||o-7--7--7-7-0-2-|-(2)-2-2--2-0-2-0-|-7--7--7-7-0-2-|
||--7--7--7-7-0-2-|-(2)-2-2--2-0-2-0-|-7--7--7-7-0-2-|


  +E  E Q  E E E E   Q  Q  E E E E   +E  E Q  E E E E
|------------------|---------------|------------------|
|------------------|---------------|------------------|
|------------------|---------------|------------------|
|-(2)-2-2--2-0-2-0-|-7--7--7-7-0-2-|-(2)-2-2--2-0-2-0-|
|-(2)-2-2--2-0-2-0-|-7--7--7-7-0-2-|-(2)-2-2--2-0-2-0-|
|-(2)-2-2--2-0-2-0-|-7--7--7-7-0-2-|-(2)-2-2--2-0-2-0-|


  1.
   W                   W
  Gtrs IV, VI
   Q   Q   E  E E E   +E   E  E  E  E   E E E
|-------------------|--------------------------||
|---------------0-0-|-(0)-----------------0-0-o||
|-12--12--12-12-0-0-|-(0)-12-12-12-12--12-0-0--||
|-------------------|--------------------------||
|-------------------|-------------------------o||
|-------------------|--------------------------||
|
| Gtr V
|  Q   Q   E  E E E    E   Q     E +E   E E E
|--5---5---5--5-5-3-|--3---3-----3-(3)--3-3-0--||
|--3---3---3--3-3-3-|--3---3-----3-(3)--3-3-0-o||
|-------------------|--------------------------||
|-------------------|--------------------------||
|-------------------|-------------------------o||
|-------------------|--------------------------||


  2.
  G
  Gtr I
   Q   Q   E  E  E  E    +E   Q   E  +E   E  E  E
   |   |   |  |  |  |     |   |   |   |   |  |  |
   /   /   /  /  /  /     /   /   /   /   /  /  /

   Q   Q   E  E  E  E    +E   Q   E  +E   E  E  E
|---------------------|---------------------------|
|---------------------|---------------------------|
|-14--14--14-14-14-12-|-(12)-12--12-(12)-12-12-12-|
|---------------------|---------------------------|
|---------------------|---------------------------|
|---------------------|---------------------------|
|
|  Q   Q   E  E  E  E     E   Q   E  +E   E  E  E
|--5---5---5--5--5--3-|---3---3---3--(3)--3--3--3-|
|--3---3---3--3--3--3-|---3---3---3--(3)--3--3--3-|
|---------------------|---------------------------|
|---------------------|---------------------------|
|---------------------|---------------------------|
|---------------------|---------------------------|


   Q   Q   E  E  E  E    +E   E  E  E  E   E  Q
|---------------------|---------------------------|
|---------------------|---------------------------|
|-11--11--11-11-11-12-|-(12)-12-12-12-12--12-12S==|
|---------------------|---------------------------|
|---------------------|---------------------------|
|---------------------|---------------------------|
|
|  Q   Q   E  E  E  E    +E   Q     E +E   E  E E
|--2---2---2--2--2--3-|--(3)--3-----3-(3)--3--3-3-|
|--3---3---3--3--3--3-|--(3)--3-----3-(3)--3--3-3-|
|---------------------|---------------------------|
|---------------------|---------------------------|
|---------------------|---------------------------|
|---------------------|---------------------------|


  Q  Q  E E E E   +E  E E E  E  E E E
|---------------|---------------------|
|-0--0--0-0-0-0-|-(0)-0-0-0--0--0-0-0-|
|-7--7--7-7-7-9-|-(9)-9-9-9--9--9-9-9-|
|---------------|---------------------|
|---------------|---------------------|
|---------------|---------------------|
|
| Q  Q  E E E E   +E  Q   E +E  E E E
|---------------|---------------------|
|-3--3--3-3-3-5-|-(5)-5---5-(5)-5-5-5-|
|-0--0--0-0-0-0-|-(0)-0---0-(0)-0-0-0-|
|---------------|---------------------|
|---------------|---------------------|
|---------------|---------------------|


   Q    Q   E  E  E  E    +E   E  E  E  E  E  E  E
|----------------------|---------------------------|
|--0----0---0--0--0----|---------------------------|
|-11---11--11-11-11-12-|-(12)-12-12-12-12-12-12-12-|
|----------------------|---------------------------|
|----------------------|---------------------------|
|----------------------|---------------------------|
|
|  E E  Q   E  E  E  E    +Q      Q     E  E  E  E
|----------------------|---------------------------|
|--7-7--7---7--7--7--8-|--(8)-----8-----8--8--8--8-|
|--0-0--0---0--0--0--0-|--(0)-----0-----0--0--0--0-|
|----------------------|---------------------------|
|----------------------|---------------------------|
|----------------------|---------------------------|


   Q    Q   E  E  E  E    +E   Q    E  +E   E  E  E
|----------------------|----------------------------|
|----------------------|----------------------------|
|-14---14--14-14-14-12-|-(12)-12---12-(12)-12-12-12-|
|----------------------|----------------------------|
|----------------------|----------------------------|
|----------------------|----------------------------|
|
|  E E  Q   E  E  E  E     E   E Q      E   E  E  E
|--5-5--5---5--5--5--3-|---3---3-3------3---3--3--2-|
|--3-3--3---3--3--3--3-|---3---3-3------3---3--3--3-|
|----------------------|----------------------------|
|----------------------|----------------------------|
|----------------------|----------------------------|
|----------------------|----------------------------|


   Q    Q   E  E  E  E    +E   E  E  E  E  E  Q
|----------------------|--------------------------|
|----------------------|--------------------------|
|-11---11--11-11-11-12-|-(12)-12-12-12-12-12-12S==|
|----------------------|--------------------------|
|----------------------|--------------------------|
|----------------------|--------------------------|
|
|  E E  Q   E  E  E  E     E   E  Q     E  E  E E
|--2-2--2---2--2--2--3-|---3---3--3-----3--3--3-3-|
|--3-3--3---3--3--3--3-|---3---3--3-----3--3--3-3-|
|----------------------|--------------------------|
|----------------------|--------------------------|
|----------------------|--------------------------|
|----------------------|--------------------------|


  Q   Q  E E E E   +E  E E E E E E E
|----------------|-------------------|
|-0---0--0-0-0-0-|-(0)-0-0-0-0-0-0-0-|
|-7---7--7-7-7-9-|-(9)-9-9-9-9-9-9-9-|
|----------------|-------------------|
|----------------|-------------------|
|----------------|-------------------|
|
| E E Q  E E E E    E  E Q   E E E E
|----------------|-------------------|
|-3-3-3--3-3-3-3-|--5--5-5---5-5-5-5-|
|-0-0-0--0-0-0-0-|--0--0-0---0-0-0-0-|
|----------------|-------------------|
|----------------|-------------------|
|----------------|-------------------|


                             D.S.S. al Dbl. Coda      &&
   Q    Q   E  E  E  E    +E   E  E  E  E  E  E  E    E E E E E E E E
|----------------------|---------------------------||-3-3-3-3-3-3-3-3-||
|--0----0---0--0--0----|---------------------------||-3-3-3-3-3-3-3-3-||
|-11---11--11-11-11-12-|-(12)-12-12-12-12-12-12-12-||-0-0-0-0-0-0-0-0-||
|----------------------|---------------------------||-x-x-x-x-x-x-x-x-||
|----------------------|---------------------------||-3-3-3-3-3-2-3-2-||
|----------------------|---------------------------||-----------------||
|
|  E E  Q   E  E  E  E     E   E  Q     E  E  E  E    E Q   E Q   E E
|----------------------|---------------------------||-0-------0-------||
|--7-7--7---7--7--7--7-|---8---8--8-----8--8--8--8-||---3---------3-0-||
|--0-0--0---0--0--0--0-|---0---0--0-----0--0--0--0-||-------0---------||
|----------------------|---------------------------||-----------------||
|----------------------|---------------------------||-----------------||
|----------------------|---------------------------||-----------------||


 Guitar Solo
  Em(type 2)
  Gtr I
  q    E  E E  E Q     +E  Q   E  E  E  E E
  |       | |  | |      |  |   |  |  |  | |
  /       / /  / /      /  /   /  /  /  / /

  Gtrs IV, V, VI
  q    E  E E  E Q     +E  Q   E  Q     Q
|--------------------|----------------------|
|--------------------|----------------------|
|--------------------|----------------------|
|-2-------2----0-2---|-(2)-2---0--2-----0---|
|-2-------2----0-2---|-(2)-2---0--2-----0---|
|-2-------2----0-2---|-(2)-2---0--2-----0---|
|
| Gtr III
| E E  E  E Q.     E    E  E Q   +E  Q.
|--------------------|----------------------|
|--------------------|----------------------|
|---9p=7----7------9p|==7----7---(7)-9------|
|---7-(7)-9-7------9p|==7----7---(7)-9------|
|---------7----------|-----7----------------|
|-0------------------|----------------------|


  Cadd9
   Q  Q  E E E E   +E  Q   E  E E E E
   |  |  | | | |    |  |   |  | | | |
   /  /  / / / /    /  /   /  / / / /

   Q  Q  E E E E   +E  E E E  E E E E
|--3--3--3-3-3-3-|-(3)-3-3-3--3-3-3-3-|
|--3--3--3-3-3-3-|-(3)-3-3-3--3-3-3-3-|
|--0--0--0-0-0-0-|-(0)-0-0-0--0-0-0-0-|
|--x--x--x-x-x-x-|-(x)-x-x-x--x-x-x-x-|
|--3--3--3-3-3-3-|-(3)-3-3-3--3-2-3-2-|
|----------------|--------------------|
|
|  TP               TP        TP
|  W                H         H
|----------------|--------------------|
|----------------|--------------------|
|-12-------------|-11--------12-------|
|--x-------------|--x---------x-------|
|-10-------------|--9--------10-------|
|----------------|--------------------|


  Em                                          Cadd9
  q    E  E E  E Q     +E  Q   E  E  E  E E   Q  Q  E E E E
  |       | |  | |      |  |   |  |  |  | |   |  |  | | | |
  /       / /  / /      /  /   /  /  /  / /   /  /  / / / /

  q    E  E E  E Q     +E  Q   E  Q     Q     Q  Q  E E E E
|--------------------|----------------------|-3--3--3-3-3-3-|
|--------------------|----------------------|-3--3--3-3-3-3-|
|--------------------|----------------------|-0--0--0-0-0-0-|
|-2-------2----0-2---|-(2)-2---0--2-----0---|-2--2--2-2-2-2-|
|-2-------2----0-2---|-(2)-2---0--2-----0---|-3--3--3-3-3-3-|
|-2-------2----0-2---|-(2)-2---0--2-----0---|---------------|
|
| E E  E  E Q.     E    E  E Q   +E  Q.       Q  Q  E E E E
|--------------------|----------------------|-3--3--3-3-3-2-|
|--------------------|----------------------|-3--3--3-3-3-3-|
|---9p=7----7------9p|==7----7---(7)-9------|---------------|
|---7-(7)-9-7------9p|==7----7---(7)-7------|---------------|
|---------7----------|-----7----------------|---------------|
|-0------------------|----------------------|---------------|


  +E  Q  E  E  E E E   Q  Q  E E E E   +E  Q  E +E  E E E
|-(3)-3--3--3--3-3-3-|-3--3--3-3-3-3-|-(3)-3--3-(3)-3-3-3-|
|-(3)-3--3--3--3-3-3-|-3--3--3-3-3-3-|-(3)-3--3-(3)-3-3-3-|
|-(0)-0--0--0--0-0-0-|-0--0--0-0-0-0-|-(0)-0--0-(0)-0-0-0-|
|-(2)-2--2--2--2-2-2-|-0--0--0-0-0-0-|-(0)-0--0-(0)-0-0-0-|
|-(3)-3--3--3--3-3-3-|-2--2--2-2-2-2-|-(2)-2--2-(2)-2-2-2-|
|--------------------|---------------|--------------------|
|
| +E  Q  E +E  E E E   Q  Q  E E E E   +E  Q  E +E  E E E
|-(2)-2--2-(2)-2-2-2-|-3--3--3-3-3-2-|-(2)-2--2-(2)-2-2-2-|
|-(3)-3--3-(3)-3-3-3-|-3--3--3-3-3-3-|-(3)-3--3-(3)-3-3-3-|
|--------------------|---------------|--------------------|
|--------------------|---------------|--------------------|
|--------------------|---------------|--------------------|
|--------------------|---------------|--------------------|


                                                              Q=77
  Gtrs III, IV, V, VI
  q  E e Q  Q    +H     E Q  E   q  E e Q  Q    +W            +W
|--------------|---------------|-3----3----3--|-(3)--------||-(3)----||
|-5----5----5--|-(5)-----------|-3----3----3--|-(3)--------||-(3)----||
|-2----2----2--|-(2)----2-4p=0-|-0----0----0--|-(0)--------||-(0)----||
|-2----2----2--|-(2)----2-4p=0-|-x----x----x--|-(x)--------||-(x)----||
|-0----0----0--|-(0)----0-2p=0-|-3----3----3--|-(3)--------||-(3)----||
|--------------|---------------|--------------|------------||--------||


   Pre-chorus
    Gtrs I, II
    S S S S S S S S S S S S S S S S
||----------------------------------|
||o---------------------------------|
||--------------------0-----0-----0-|
||------7-----7---7-----4-----4-----|
||o---5-----5-----------------------|
||--5-----5-----5---2-----2-----2---|


   S  S  S  S  S  S  S  S  S  S  S  S  S  S  S  S   3x
|---------------------------------------------------||
|--------------------------------------------------o||
|---------------------------------------------------||
|-------12-------12-------------12-------12---------||
|----10-------10-------10----10-------10-------10--o||
|-10-------10-------10----10-------10-------10------||


  S S S S S S S S S S S S S S S S   W          +W
|---------------------------------|----------|--------||
|---------------------------------|----------|--------||
|-------------------0-----0-----0-|-7--------|-(7)----||
|-----7-----7---7-----4-----4-----|-5--------|-(5)----||
|---5-----5-----------------------|-3--------|-(3)----||
|-5-----5-----5---2-----2-----2---|----------|--------||


 Verse (Outro)
  Gtr I
  S S S S S S S S S S S S S S S S   S S S S S S S S S S S S S S S S
|---------------------------------|-----------------------------------|
|---8-----8-----8---7-----7-----7-|---5-----5-----5---5-----5-----7---|
|-----0-----0---------0-----0-----|-----0-----0---------0-----0-------|
|---------------------------------|-----------------------------------|
|-7-----7-----7---5-----5-----5---|-3-----3-----3---3-----3-----3-----|
|---------------------------------|-----------------------------------|


  S S S S S S S S S S S S S E.     +W
|--------------------------------|--------*|
|---8-----8-----8---7-----7------|--------*|
|-----0-----0---------0-----0----|-(0)----*|
|--------------------------------|--------*|
|-7-----7-----7---5-----5------5S|==3-----*|
|--------------------------------|--------*|
  H               Q       E    E    W


Duration Legend
---------------
W - whole; H - half; Q - quarter; E - 8th; S - 16th; T - 32nd; X - 64th; a - acciaccatura
+ - note tied to previous; . - note dotted; .. - note double dotted
Uncapitalized letters represent notes that are staccato (1/2 duration)
Irregular groupings are notated above the duration line
Duration letters will always appear directly above the note/fret number it represents the
duration for.  Duration letters with no fret number below them represent rests.  Multi-
bar rests are notated in the form Wxn, where n is the number of bars to rest for.  Low
melody durations appear below the staff

Tablature Legend
----------------
 h   - hammer-on
 p   - pull-off
 b   - bend
 pb  - pre-bend
 r   - bend release (if no number after the r, then release immediately)
 /\  - slide into or out of (from/to "nowhere")
 s   - legato slide
 S   - shift slide
  - natural harmonic
[n]  - artificial harmonic
n(n) - tapped harmonic
 ~   - vibrato
 tr  - trill
 T   - tap
 TP  - trem. picking
 PM  - palm muting
\n/  - tremolo bar dip; n = amount to dip
 \n  - tremolo bar down
 n/  - tremolo bar up
/n\  - tremolo bar inverted dip
 =   - hold bend; also acts as connecting device for hammers/pulls
 <>  - volume swell (louder/softer)
 x   - on rhythm slash represents muted slash
 o   - on rhythm slash represents single note slash

Misc Legend
-----------
 |  - bar
||  - double bar
||o - repeat start
o|| - repeat end
*|  - double bar (ending)
 :  - bar (freetime)
 $  - Segno
 &  - Coda
Tempo markers -  = BPM(8/16=s8/s16), where s8 = swing 8ths, s16 = swing 16ths


***************************************************************************************
* Generated using Power Tab Editor by Brad Larsen - http://powertab.guitarnetwork.org *
***************************************************************************************
Comments