Busted - Why Chords & Tabs

 

Why Chords & Tabs

Busted Chords & Tabs

Version: 2 Type: Tab 0 ratings
1 star 2 stars 3 stars 4 stars 5 stars
comments

Why Tab

   
Hey, i think this is one of the best songs ever by busted so i decided to post the 
picking bit on this site as there is no tab for it. Enjoy, im sure this is 100% perfect.

e|--------------------------------------------------------------------|
B|---8-----8----8---7-----7-----7---5-----5-----5---5-----5------7----|
G|-----7-----7--------7-----7---------5-----5---------5-----5---------|
D|-------5-----5--------7-----7---------5-----5---------5-------------|
A|-7--------------5---------------3---------------3------------5------|
E|--------------------------------------------------------------------|
   Em             D               C                            D     Em

Repeat the pattern pretty fast over and over for the first verse:

look at me up in the sky
I watch the world just pass me by
And all my feelings give me away
Its happening more every day
[ Tab from: http://www.guitartabs.cc/tabs/b/busted/why_tab_ver_2.html ]
Then play


e|---------------------------------------------------------------------|
B|---3-----3-----3---3-----3-----3----3-----3-----3---3------3-----3---|
G|-----0-----0---------0-----0----------0-----0---------0------0-------|
D|-------0-----0---------0-----0----------0-----0---------0------0-----|
A|----------------------------------3---------------3------------------|
E|-3---------------0---------------------------------------------------|
   G               E                C

Repeat fast to the words:

Loving you could be so easy
Loving you could be so great
Loving you could be so easy
Loving you could be so great

Then it stays on C and goes

G 0-0-0-0-0-0-0-0-0-0-0-0-0-0-0-0-|
D 5-5-5-5-5-5-5-5-4-4-4-4-4-4-4-4-|

into the chorus and the rest of the song, which i would put here but there seems to be a 
tab of that already.

Thanks xxxxx
please rate this tab
Comments