Busted - Why Chords & Tabs

 

Why Chords & Tabs

Busted Chords & Tabs

Version: 1 Type: Chords 0 ratings
1 star 2 stars 3 stars 4 stars 5 stars
comments

Why Chords

   
Song – Why
Artist – Busted
Album – A Present for Everyone

Intro – Em	D	C x2

Verse - Em	D	C	D
	Em	D	C	D
	Em	D	C	D
            Em	D	C	D
            G	C	G	C x2

On D string play ----5-5-5-5-4-4-4-4-4 

Chorus – G	D	Em	C
	   G	D	C
	   G	D	Em	C
	   G	D	C

Verse – Am	Em	C
	 Am	 C
	 Am	Em	C
	 Am	 C
Chorus – G	D	Em	C
	   G	D	C
	   G	D	Em	C
	   G	D	C
Verse – Am	Em	
	 Am	Em
             Am	Em
             Am	Em

On B string play ---10-10-10-10-8-8-8-8
[ Tab from: http://www.guitartabs.cc/tabs/b/busted/why_crd.html ]
            Am	Em
	Am	Em
	Am	Em
Am	Em
Play solo twice - 
E-----------------------------------------------------------------------------------------------------
B-10-10-10-10-8-8-8-8-7-7-7-7-8-8-8-8-------------------------------------------------------
G-----------------------------------------------7-7-7-7-9-9-9-9-11-11-11-11-12-12-12-12--
D----------------------------------------------------------------------------------------------------
A----------------------------------------------------------------------------------------------------
E-----------------------------------------------------------------------------------------------------

Chorus – G	D	Em	C
	   G	D	C
	   G	D	Em	C
	   G	D	C
E------------------------------------------------------------------------------------------------------
B---------------------8-8-7-8-----------------------------------------------------------------------
G--9-7---9-9-7---9----------9-7---9-9-7---7-7-7-7-11-11-11-11-12-12-12-12-11---------
D------9--------9-----------------9---------9-------------------------------------------------------
A-----------------------------------------------------------------------------------------------------
E------------------------------------------------------------------------------------------------------

Am	G	C

G	C	G	C x2


Em	D	C	D
Em	D	C	D

Questions, craigharvey_17@hotmail.com
Comments