Busted - Whos David Chords & Tabs

 

Whos David Chords & Tabs

Busted Chords & Tabs

Version: 3 Type: Tab 0 ratings
1 star 2 stars 3 stars 4 stars 5 stars
comments

Whos David Tab

I'll get back to this tab. I only have the guitar one of the intro. I'll get the whole 
later. May the force be with you. Dulguun
[ Tab from: http://www.guitartabs.cc/tabs/b/busted/whos_david_tab_ver_3.html ]
e----------------------------------------------------------|
B------10---10---9---9---10---10---9---7-------7-7-7--9-9--|
G----9----9----9---9---9----9----9---9---9-9-9-------------|
D----------------------------------------------------------|
A----------------------------------------------------------|
E----------------------------------------------------------|
                                                                  X2
e----------------------------------------------------------|
B---9-10-10-9-9-9-7-7-7------------------------------------|
G----------------------------------------------------------|
D----------------------------------------------------------|
A----------------------------------------------------------|
E----------------------------------------------------------|

During verse one, you play...

e----------------------------------------------------------|
B------9---9---10---10---9---9---10------------------------|
G----9---9---9----9----9---9---9---------------------------|
D----------------------------------------------------------|
A----------------------------------------------------------|
E----------------------------------------------------------|

Just cope with this for the meantime. I'll get the rest of the song
soon....
Comments