Busted - What I Go To School For Chords & Tabs

 

What I Go To School For Chords & Tabs

Busted Chords & Tabs

Version: 3 Type: Tab 0 ratings
1 star 2 stars 3 stars 4 stars 5 stars
comments

What I Go To School For Tab

Artist-Busted
Song-What I GO to School for
Tuning-Standard	
Tabbed By-Skott	

Intro:
e|-------------------------------------------------------------------
B|-------------------------------------------------------------------
G|-2-2-2-2-2-2-2-2--4-4-4-4--7-7-7-7---------------------------------
D|-2-2-2-2-2-2-2-2--4-4-4-4--7-7-7-7--------------------------------
A|-0-0-0-0-0-0-0-0--2-2-2-2--5-5-5-5---------------------------------
E|-------------------------------------------------------------------

Verse: 
e|-------------------------------------------------------------------
B|-------------------------------------------------------------------
G|-2-2-2-2-2-2-2-2------------------------------------7-7-7-7-7-7-7-7
D|-2-2-2-2-2-2-2-2--2-2-2-2-2-2-2-2--4-4-4-4-4-4-4-4--7-7-7-7-7-7-7-7
A|-0-0-0-0-0-0-0-0--2-2-2-2-2-2-2-2--4-4-4-4-4-4-4-4--5-5-5-5-5-5-5-5
E|------------------0-0-0-0-0-0-0-0--2-2-2-2-2-2-2-2-----------------

[ Tab from: http://www.guitartabs.cc/tabs/b/busted/what_i_go_to_school_for_tab_ver_3.html ]
Chorus:
e|-------------------------------------------------------------------
B|-------------------------------------------------------------------
G|-2-2-2-2-2-2-2-2-7-7-7-7-7-7-7-7----------------------------------
D|-2-2-2-2-2-2-2-2-7-7-7-7-7-7-7-7-4-4-4-4-4-4-4-4--2-2-2-2-2-2-2-2-
A|-0-0-0-0-0-0-0-0-5-5-5-5-5-5-5-5-4-4-4-4-4-4-4-4--2-2-2-2-2-2-2-2-
E|----------------------------------2-2-2-2-2-2-2-2--0-0-0-0-0-0-0-0-

Bridge:
e|--5-0-4h5----------------------------------------------------------
B|-------------------------------------------------------------------
G|-------------------------------------------------------------------
D|-------------------------------------------------------------------
A|-------------------------------------------------------------------
E|-------------------------------------------------------------------
Just repeat that im not too sure bout this bit.
Ne probs email me at spinky102@hotmail.com
Comments