Busted - What I Go To School For Chords & Tabs

 

What I Go To School For Chords & Tabs

Busted Chords & Tabs

Version: 1 Type: Bass Tab 0 ratings
1 star 2 stars 3 stars 4 stars 5 stars
comments

What I Go To School For Bass Tab

   
What I go to school for tab - Bass


Intro
G:-2-2-2-2-2-2-2-2-4-4-4-4-7-7-7-7-2-2-2-2-2-2-2-2-4-4-4-4-7-7-7-7-
D:-----------------------------------------------------------------
A:-----------------------------------------------------------------
E:-----------------------------------------------------------------

1st Verse
G:-----------------9-9-9-9-9-9-9-9-11-11-11-11-11-11-11-11-7-7-7-7-7-7-7-7-|X2
D:-7-7-7-7-7-7-7-7---------------------------------------------------------|X2
A:-------------------------------------------------------------------------|X2
E:-------------------------------------------------------------------------|X2

G:-----------------------------------------------------------------
D:-----------------------------------------------------------------
A:-0-0-0-0-0-0-0-0-7-7-7-7-7-7-7-7-9-9-9-9-9-9-9-9-5-5-5-5-5-5-5-5-
E:-----------------------------------------------------------------

G:-------------------------------------------------------------
D:-------------------------------------------------------------
A:-0-0-0-0-0-0-0-0-7-7-7-7-7-7-7-7-9-9-9-9-9-9-9-9---5-5---5-5-
E:-------------------------------------------------------------

Chorus -----
G:-----------------------------------------------------------------|X2|--------
D:-----------------------------------------------------------------|X2|--------
A:-0-0-0-0-0-0-0-0-5-5-5-5-5-5-5-5---------------------------------|X2|--------
E:---------------------------------2-2-2-2-2-2-2-2-0-0-0-0-0-0-0-0-|X2|--------

----- Then (End part of chorus)
G:---------------------------------
D:---------------------------------
A:-5-5-5-5-5-5-5-5--7-7-7----------
E:---------------------------------
[ Tab from: http://www.guitartabs.cc/tabs/b/busted/what_i_go_to_school_for_btab.html ]
Part just before the 2nd verse (Riff 1)
G:-2-2-2-2-2-2-2-2-4-4-4-4-7-7-7-7-
D:---------------------------------
A:---------------------------------
E:---------------------------------

2nd verse
G:-----------------------------------------------------------------|X3
D:-----------------------------------------------------------------|X3
A:-0-0-0-0-0-0-0-0-7-7-7-7-7-7-7-7-9-9-9-9-9-9-9-9-5-5-5-5-5-5-5-5-|X3
E:-----------------------------------------------------------------|X3

G:-------------------------------------------------------------
D:-------------------------------------------------------------
A:-0-0-0-0-0-0-0-0-7-7-7-7-7-7-7-7-9-9-9-9-9-9-9-9---5-5---5-5-
E:-------------------------------------------------------------

Bridge
Soft part (Riff 2)
G:-------------------------------------------------------------------
D:-4-4-4-4-4-4-4-4-2-2-2-2-2-2-2-2-0-0-0-0-0-0-0-0-0-0-0-0-0-2-2-2-2-
A:-------------------------------------------------------------------
E:-------------------------------------------------------------------
Loud Part (Riff 3)
G:-----------------------------------------------------------------
D:-----------------------------------------------------------------
A:-0-0-0-0-0-0-0-0-7-7-7-7-7-7-7-7-9-9-9-9-9-9-9-9-5-5-5-5-5-5-5-5-
E:-----------------------------------------------------------------
Last Riff of the bridge (Riff 4)
G:-------------------------------------------------------------
D:-------------------------------------------------------------
A:-0-0-0-0-0-0-0-0-7-7-7-7-7-7-7-7-9-9-9-9-9-9-9-9---5-5---5-5-
E:-------------------------------------------------------------
INTRO
1ST VERSE
CHORUS ---------- >END PART OF CHOURS
RIFF 1
2ND VERSE
CHORUS ---------- >END PART OF CHOURS
BRIDGE (RIFF 2, 3 + 4)
CHORUS (WITHOUT END PART)
CHORUS ---------- >END PART OF CHOURS

Thatís it ____________ :)
Comments