Busted - Thunderbirds Are Go Chords & Tabs

 

Thunderbirds Are Go Chords & Tabs

Busted Chords & Tabs

Version: 2 Type: Tab 0 ratings
1 star 2 stars 3 stars 4 stars 5 stars
comments

Thunderbirds Are Go Tab

Busted - Thunderbirds Are Go!

Fast Up & Down Srumming Throughout

Intro
  x16  x16   x16   x8   x8
e--7----11----4----0----3-----------|
b--7----11----4----0----3-----------|
g--8----11----4----1----4-----------|
d--9----13----6----2----5-----------|
a--9----13----6----2----5-----------|
E--7----11----4----0----3-----------|

Verse

Spring breaks come around and there's no hero's to be found there's something

  x16  x16
e--7----11--|
b--7----11--|
g--8----11--|
d--9----13--|
a--9----13--|
E--7----11--|

major's going down on Tracy island, island.

   x16   x8   x8
e---4----0----3---|
b---4----0----3---|
g---4----1----4---|
d---6----2----5---|
a---6----2----5---|
E---4----0----3---|

Weapons underground who mean the planet's safe and sound if someone

  x16  x16
e--7----11--|
b--7----11--|
g--8----11--|
d--9----13--|
a--9----13--|
E--7----11--|

evil's coming round he should be frightened (frightened)

  x16   x8   x8
e--4----0----3-----------|
b--4----0----3-----------|
g--4----1----4-----------|
d--6----2----5-----------|
a--6----2----5-----------|
E--4----0----3-----------|

Cause now the boys are back in town. No strings to hold them down, down.

  x16  x16   x8   x8   x1
e--7----4----2----0----3-----------|
b--7----4----2----0----3-----------|
g--8----4----3----1----4-----------|
d--9----6----4----2----5-----------|
a--9----6----4----2----5-----------|
E--7----4----2----0----3-----------|

Chorus

Don't be mad please, stop the hating just be glad that they'll be waiting
[ Tab from: http://www.guitartabs.cc/tabs/b/busted/thunderbirds_are_go_tab_ver_2.html ]
  x16  x16   x16   x8   x8
e--7----4----2----0----3-----------|
b--7----4----2----0----3-----------|
g--8----4----3----1----4-----------|
d--9----6----4----2----5-----------|
a--9----6----4----2----5-----------|
E--7----4----2----0----3-----------|

friends we have are ever changing you know the lids about to blow when the thunderbirds 
go.

  x16  x16   x16   x8   x8
e--7----4----2----0----3-----------|
b--7----4----2----0----3-----------|
g--8----4----3----1----4-----------|
d--9----6----4----2----5-----------|
a--9----6----4----2----5-----------|
E--7----4----2----0----3-----------|

Verse 2:

Kids are learning fast they know the t-birds kick some ***
be sure that there's no coming last if your on their side (there side)
It always look so cool when spaceships come out of the pool
You know that you'd just be a fool to be a bad guy (bad guy)
Cause now the boys are back in town no strings to hold them down, down.


Chorus:

Don't be mad man please stop the hating just be glad that they'll be waiting,
friends we have are ever changing you know the lids about to blow when the thunderbirds 
go.

Thunderbirds are go!

Chorus:

Don't be mad man please stop the hating just be glad that they'll be waiting,
friends we have are ever changing you know the lids about to blow when the thunderbirds 
go.

The Thunderbirds are, Thunderbirds are go
The Thunderbirds are, Thunderbirds are go
The Thunderbirds are, Thunderbirds are
Thunderbirds are, Thunderbirds are, Thunderbirds are go!


Ending - This is a mixture of changing between the first
	 two chords before ending on the last chord.

  Change between        End on
    x8     x8             x1 
e---3------5--------------7------|
b---3------5--------------7------|
g---4------6--------------8------|
d---5------7--------------9------|
a---5------7--------------9------|
E---3------5--------------7------|
Comments