Busted - Thunderbirds Are Go Chords & Tabs

 

Thunderbirds Are Go Chords & Tabs

Busted Chords & Tabs

Version: 1 Type: Tab 0 ratings
1 star 2 stars 3 stars 4 stars 5 stars
comments

Thunderbirds Are Go Tab

Busted - Thunderbirds Are Go!

Verse

Spring breaks come around and there's no hero's to be found there's something

e-------------------------------------------------------------|
b-------------------------------------------------------------|
g--------------------8-8-8-8-8-8-8-8--------------------------|
d--9-9-9-9-9-9-9-9---8-8-8-8-8-8-8-8--------------------------|
a--9-9-9-9-9-9-9-9---6-6-6-6-6-6-6-6--------------------------|
E--7-7-7-7-7-7-7-7--------------------------------------------|

major's going down on Tracy island, island.

e---------------------------------------|
b---------------------------------------|
g---------------------------------------|
d--6-6-6-6-6-6-6-6---2-2-2-2---5-5-5-5--|
a--6-6-6-6-6-6-6-6---2-2-2-2---5-5-5-5--|
E--4-4-4-4-4-4-4-4---0-0-0-0---3-3-3-3--|

Weapons underground who mean the planet's safe and sound if someone

e-------------------------------------------------------------|
b-------------------------------------------------------------|
g--------------------8-8-8-8-8-8-8-8--------------------------|
d--9-9-9-9-9-9-9-9---8-8-8-8-8-8-8-8--------------------------|
a--9-9-9-9-9-9-9-9---6-6-6-6-6-6-6-6--------------------------|
E--7-7-7-7-7-7-7-7--------------------------------------------|

evil's coming round he should be frightened (frightened)

e---------------------------------------|
b---------------------------------------|
g---------------------------------------|
d--6-6-6-6-6-6-6-6---2-2-2-2---5-5-5-5--|
a--6-6-6-6-6-6-6-6---2-2-2-2---5-5-5-5--|
E--4-4-4-4-4-4-4-4---0-0-0-0---3-3-3-3--|

Cause now the boys are back in town. No strings to hold them down, down.

e-------------------------------------------------------------|
b-------------------------------------------------------------|
g-------------------------------------------------------------|
d--9-9-9-9-9-9-9-9---6-6-6-6-6-6-6-6---4-4-4-4---2-2-2-2---5--|
a--9-9-9-9-9-9-9-9---6-6-6-6-6-6-6-6---4-4-4-4---2-2-2-2---5--|
E--7-7-7-7-7-7-7-7---4-4-4-4-4-4-4-4---2-2-2-2---0-0-0-0---3--|

Chorus
[ Tab from: http://www.guitartabs.cc/tabs/b/busted/thunderbirds_are_go_tab.html ]
Don't be mad please, stop the hating just be glad that they'll be waiting

e-------------------------------------------------------------------------|
b-------------------------------------------------------------------------|
g-------------------------------------------------------------------------|
d--9-9-9-9-9-9-9-9---6-6-6-6-6-6-6-6---4-4-4-4-4-4-4-4--2-2-2-2---5-5-5-5-|
a--9-9-9-9-9-9-9-9---6-6-6-6-6-6-6-6---4-4-4-4-4-4-4-4--2-2-2-2---5-5-5-5-|
E--7-7-7-7-7-7-7-7---4-4-4-4-4-4-4-4---2-2-2-2-2-2-2-2--0-0-0-0---3-3-3-3-|

friends we have are ever changing you know the lids about to blow when the thunderbirds 
go.

e---------------------------------------------------------------------------|
b---------------------------------------------------------------------------|
g---------------------------------------------------------------------------|
d--9-9-9-9-9-9-9-9---6-6-6-6-6-6-6-6---4-4-4-4-4-4-4-4--2-2-2-2-2-2-2-2---5-|
a--9-9-9-9-9-9-9-9---6-6-6-6-6-6-6-6---4-4-4-4-4-4-4-4--2-2-2-2-2-2-2-2---5-|
E--7-7-7-7-7-7-7-7---4-4-4-4-4-4-4-4---2-2-2-2-2-2-2-2--0-0-0-0-0-0-0-0---3-|

e-----------------|
b-----------------|
g-----------------|
d--5-5-5-5-5-5-5--|
a--5-5-5-5-5-5-5--|
E--3-3-3-3-3-3-3--|


Verse 2:

Kids are learning fast they know the t-birds kick some ***
be sure that there's no coming last if your on their side (there side)
It always look so cool when spaceships come out of the pool
You know that you'd just be a fool to be a bad guy (bad guy)
Cause now the boys are back in town no strings to hold them down, down.


Chorus:

Don't be mad man please stop the hating just be glad that they'll be waiting,
friends we have are ever changing you know the lids about to blow when the thunderbirds 
go.

Thunderbirds are go!

Chorus:

Don't be mad man please stop the hating just be glad that they'll be waiting,
friends we have are ever changing you know the lids about to blow when the thunderbirds 
go.

The Thunderbirds are, Thunderbirds are go
The Thunderbirds are, Thunderbirds are go
The Thunderbirds are, Thunderbirds are
Thunderbirds are, Thunderbirds are, Thunderbirds are go!
Comments