Busted - Thunderbirds Are Go Chords & Tabs

 

Thunderbirds Are Go Chords & Tabs

Busted Chords & Tabs

Version: 1 Type: Bass Tab 0 ratings
1 star 2 stars 3 stars 4 stars 5 stars
comments

Thunderbirds Are Go Bass Tab

   
Thunderbirds Are go! - Busted
-------------------------------------------------------------------------------

Tabbed By : 
e-mail: 

Tuning:STANDARD		

G|---------------------------------------------------------------------------|
D|---------------------------------------------------------------------------|
A|---------------------------------------------------------------------------|
E|-7-777-777-7777777-777-777-7777777-777-777-7777777-777-777-----------------|

G|---------------------------------------------------------------------------|
D|---------------------------------------------------------------------------|
A|----------66666666---------------7777--------------------------------------|
E|-77777777----------44444444-0000-------------------------------------------|Intro 

G|---------------------------------------------------------------------------|
D|---------------------------------------------------------------------------|
A|----------66666666---------------7777--------------------------------------|
E|-77777777----------44444444-0000-------------------------------------------|1st Verse x2

G|---------------------------------------------------------------------------|
D|----------------------------55-77------------------------------------------|
A|---------------------------------------------------------------------------|
E|-44444444-22222222-00000000------------------------------------------------|Pre-Chorus

G|---------------------------------------------------------------------------|
D|---------------------------------------------------------------------------|
A|---------------------------------7777--------------------------------------|
E|-77777777-44444444-22222222-0000-------------------------------------------|Chorus

G|---------------------------------------------------------------------------|
D|---------------------------------------------------------------------------|
A|---------------------------------7-----------------------------------------|
E|-77777777-44444444-22222222-0000-----77777777------------------------------|

G|---------------------------------------------------------------------------|
D|---------------------------------------------------------------------------|
A|----------66666666---------------7777--------------------------------------|
E|-77777777----------44444444-0000-------------------------------------------|Verse 2 x2
[ Tab from: http://www.guitartabs.cc/tabs/b/busted/thunderbirds_are_go_btab.html ]
G|---------------------------------------------------------------------------|
D|-----------------------------55-77-----------------------------------------|
A|---------------------------------------------------------------------------|
E|-44444444-22222222-00000000------------------------------------------------|Pre-Chorus

G|---------------------------------------------------------------------------|
D|---------------------------------------------------------------------------|
A|---------------------------------7777--------------------------------------|
E|-77777777-44444444-22222222-0000-------------------------------------------|Chorus

G|---------------------------------------------------------------------------|
D|---------------------------------55-77-99999999----------------------------|
A|---------------------------------------------------------------------------|
E|-77777777-44444444-22222222-0000-------------------------------------------|
G|---------------------------------------------------------------------------|
D|------------------------------------------------------55-44-22-00----------|
A|-77777777--------------------------00--00-22-44444444-------------00000000-|

E|---------44444444-33333333-55555555--77------------------------------------|Bridge
7
G|---------------------------------------------------------------------------|
D|---------------------------------------------------------------------------|
A|--9-9-9-9-9-9-9--6-6-6-6-6-6-6-6-------------------------------------------|
E|-7-7-7-7-7-7-7--4-4-4-4-4-4-4-4--22222222-0000-33-55-----------------------|Brigde/Chorus

G|---------------------------------------------------------------------------|
D|--------------------------------55-77-99999999-----------------------------|
A|---------------------------------------------------------------------------|
E|-77777777-44444444-22222222-0000-------------------------------------------|Chorus

G|---------------------------------------------------------------------------|
D|---------------------------------------------------------------------------|
A|---------------------------------------------------------------------------|
E|-3333-5555-77777777-3333-5555-77777777-------------------------------------|Outro

G|----------------------7-7-7-7--9-9-9-9-------------------------------------|
D|-5555-7777-5555-7777-5-5-5-5--7-7-7-7--9-----------------------------------|
A|---------------------------------------------------------------------------|
E|---------------------------------------------------------------------------|
Comments