Busted - That Thing You Do Chords & Tabs

 

That Thing You Do Chords & Tabs

Busted Chords & Tabs

Version: 4 Type: Tab 0 ratings
1 star 2 stars 3 stars 4 stars 5 stars
comments

That Thing You Do Tab

Busted - That Thing You Do (Intro)

INTRO

E-7-9-9-10-9-7----------------|
B--------------10-9-7-9-10----|
G-----------------------------|
D-----------------------------|
A-----------------------------|
E-----------------------------|
[ Tab from: http://www.guitartabs.cc/tabs/b/busted/that_thing_you_do_tab_ver_4.html ]
E---7-9-9-10-9-7------------------|
B----------------10-9-7-9-10------|
G---------------------------------|
D---------------------------------|
A---------------------------------|
E---------------------------------|

E----7-9-9-10--9-9--7-9-/12-----|
B-------------------------------|
G-------------------------------|
D-------------------------------|
A-------------------------------|
E-------------------------------|

This is my first tab, i'm not sure if it's 100% correct...
Veronica
Comments