Busted - Teenage Kicks Chords & Tabs

 

Teenage Kicks Chords & Tabs

Busted Chords & Tabs

Version: 4 Type: Tab

Teenage Kicks Tab

   
                        TEENAGE KICKS BY BUSTED

Intro
e------11-11--|
B-------------|
G-------------| X6
D-12-12-------|
A-------------|
E-------------|

e---------------------------------------------------------------|
B---------------------------------------------------------------|
G---------------------------------------------------------------| X2
D---------------------------------------------------------------|
A-12-12-12-12-12-12-12-12-12-12-12-11-9-9-9-9-9-9-9-9-9-9-9-11--|
E-10-10-10-10-10-10-10-10-10-10-10--9-7-7-7-7-7-7-7-7-7-7-7--9--|

Verse
e---------------------------------------------------------------|
B---------------------------------------------------------------|
G---------------------------------------------------------------| X2
D---------------------------------------------------------------|
A-12-12-12-12-12-12-12-12-12-12-12-11-9-9-9-9-9-9-9-9-9-9-9-11--|
E-10-10-10-10-10-10-10-10-10-10-10--9-7-7-7-7-7-7-7-7-7-7-7--9--|

-3-4-5-5-5-5-5-5-5-5-5-5
Chorus
e-------------------------------------------------|
B-------------------------------------------------|
G-------------------------------------------------|
D-----5-5-5-5-5-5-5-5-5-5-5-6-7-7-7-7-7-7-7-7-7-7-|
A-9-7-5-5-5-5-5-5-5-5-5-5-5-6-7-7-7-7-7-7-7-7-7-7-|
E-7-5-3-3-3-3-3-3-3-3-3-3-3-4-5-5-5-5-5-5-5-5-5-5-|
Verse
e---------------------------------------------------------------|
B---------------------------------------------------------------|
G---------------------------------------------------------------| X2
D---------------------------------------------------------------|
A-12-12-12-12-12-12-12-12-12-12-12-11-9-9-9-9-9-9-9-9-9-9-9-11--|
E-10-10-10-10-10-10-10-10-10-10-10--9-7-7-7-7-7-7-7-7-7-7-7--9--|

Chorus
e-------------------------------------------------|
B-------------------------------------------------|
G-------------------------------------------------|
D-----5-5-5-5-5-5-5-5-5-5-5-6-7-7-7-7-7-7-7-7-7-7-|
A-9-7-5-5-5-5-5-5-5-5-5-5-5-6-7-7-7-7-7-7-7-7-7-7-|
E-7-5-3-3-3-3-3-3-3-3-3-3-3-4-5-5-5-5-5-5-5-5-5-5-|

e---------------------------------------------------------------|
B---------------------------------------------------------------|
G-----------------------------0-------------------------0-------| X2
D---------------------------------------------------------------|
A-12-12-12-12-12-12-12-12-12-12-12-11-9-9-9-9-9-9-9-9-9-9-9-11--|
E-10-10-10-10-10-10-10-10-10-10-10--9-7-7-7-7-7-7-7-7-7-7-7--9--|
[ Tab from: http://www.guitartabs.cc/tabs/b/busted/teenage_kicks_tab_ver_4.html ]
Verse
e---------------------------------------------------------------|
B---------------------------------------------------------------|
G---------------------------------------------------------------| X2
D---------------------------------------------------------------|
A-12-12-12-12-12-12-12-12-12-12-12-11-9-9-9-9-9-9-9-9-9-9-9-11--|
E-10-10-10-10-10-10-10-10-10-10-10--9-7-7-7-7-7-7-7-7-7-7-7--9--|

Chorus
e-------------------------------------------------|
B-------------------------------------------------|
G-------------------------------------------------|
D-----5-5-5-5-5-5-5-5-5-5-5-6-7-7-7-7-7-7-7-7-7-7-|
A-9-7-5-5-5-5-5-5-5-5-5-5-5-6-7-7-7-7-7-7-7-7-7-7-|
E-7-5-3-3-3-3-3-3-3-3-3-3-3-4-5-5-5-5-5-5-5-5-5-5-|

Verse
e---------------------------------------------------------------|
B---------------------------------------------------------------|
G---------------------------------------------------------------| X2
D---------------------------------------------------------------|
A-12-12-12-12-12-12-12-12-12-12-12-11-9-9-9-9-9-9-9-9-9-9-9-11--|
E-10-10-10-10-10-10-10-10-10-10-10--9-7-7-7-7-7-7-7-7-7-7-7--9--|

Chorus
e-------------------------------------------------|
B-------------------------------------------------|
G-------------------------------------------------|
D-----5-5-5-5-5-5-5-5-5-5-5-6-7-7-7-7-7-7-7-7-7-7-|
A-9-7-5-5-5-5-5-5-5-5-5-5-5-6-7-7-7-7-7-7-7-7-7-7-|
E-7-5-3-3-3-3-3-3-3-3-3-3-3-4-5-5-5-5-5-5-5-5-5-5-|

Solo
e----------------------------------------------------|
B------------14^14^14^14^14^--------11^11^11^11^-----|
G----------12---------------12-----9------------9----| X2
D--------12-----------------------9---------------9--|
A------12------------------------9-------------------|
E-12-12-----------------------7-7--------------------|

Chorus
e-------------------------------------------------|
B-------------------------------------------------|
G-------------------------------------------------|
D-----5-5-5-5-5-5-5-5-5-5-5-6-7-7-7-7-7-7-7-7-7-7-|
A-9-7-5-5-5-5-5-5-5-5-5-5-5-6-7-7-7-7-7-7-7-7-7-7-|
E-7-5-3-3-3-3-3-3-3-3-3-3-3-4-5-5-5-5-5-5-5-5-5-5-|

Outro
e---11----11----11-------------------------------------------------------------------|
B-----11----11----11-----------------------------------------------------------------|
G------------------------------------------------------------------------------------|
D-12----12----12----12^12^--12^---12^12^12^12^12~~~~~~~~~~~~~~~~~~~~~~~~~~~~h--h-h~~~|
A------------------------------------------------------------------------------------|
E------------------------------------------------------------------------------------|