Busted - Teenage Kicks Chords & Tabs

 

Teenage Kicks Chords & Tabs

Busted Chords & Tabs

Version: 1 Type: Tab 0 ratings
1 star 2 stars 3 stars 4 stars 5 stars
comments

Teenage Kicks Tab

 Band: Busted 
Song: teenage kicks 
 
 Hope you enjoy this tab give me 5 stars please! This is a brill 
 Song I am working on the solo now. I am sure its 110 % please 
 E-mail me if you use this tab just for me to know there are people 
 Jamming to my tab thanks a bunch! Any questions please ask me  
 On dodgeviper2002@hotmail.com thanks! 
 The original version of this song was done by The Undertones  
 In the early 80s!? (Just a useful bit of information there)
 

Intro and verse
E: ------------------------------------------------------------------
B: ------------------------------------------------------------------
G: ------------------------------------------------------------------
D: --12-12-12-12-12-12-12-12-12-12-12-12-12-12-12-\-10-\-9-9-9-9-9-9-
A: --12-12-12-12-12-12-12-12-12-12-12-12-12-12-12-\-10-\-9-9-9-9-9-9-
E: --10-10-10-10-10-10-10-10-10-10-10-10-10-10-10-\-8- \-7-7-7-7-7-7-
    

 --------------------------------------------------------------------
 -------------------------------------------------------------------- 
 --------------------------------------------------------------------
 9-9-9-9-9-9-9-9-9-9-/11-12-12-12-12-12-12-12-12-12-12-12-12-12-12---
 9-9-9-9-9-9-9-9-9-9-/11-12-12-12-12-12-12-12-12-12-12-12-12-12-12---
 7-7-7-7-7-7-7-7-7-7-/9--10-10-10-10-10-10-10-10-10-10-10-10-10-10---
  
[ Tab from: http://www.guitartabs.cc/tabs/b/busted/teenage_kicks_tab.html ]
 -------------------------------------------------------------------- 
 --------------------------------------------------------------------  
 --------------------------------------------------------------------
 10-\9-9-9-9-9-9-9-9-9-9-9-9-9-9-9-----------------------------------
 10-\9-9-9-9-9-9-9-9-9-9-9-9-9-9-9-----------------------------------
  8-\7-7-7-7-7-7-7-7-7-7-7-7-7-7-7-----------------------------------
     
 Keep playing these same chords over n over again until the chorus then go back in the verse again. 
 

Chorus 
E: ------------------------------------------------------------------ 
B: ------------------------------------------------------------------  
G: ------------------------------------------------------------------
D: --12-12-12-12-12-12-12-12-12-12-12-12-12-12-12--10-\9-9-9-9-9-9---
A: --12-12-12-12-12-12-12-12-12-12-12-12-12-12-12--10-\9-9-9-9-9-9---
E: --10-10-10-10-10-10-10-10-10-10-10-10-10-10-10--8--\7-7-7-7-7-7---
    

 --------------------------------------------------------------------  
 --------------------------------------------------------------------
 --------------------------------------------------------------------
 9-9-9-9-9-9-9-9-9-\-6-\5-5-5-5-5-5-5-5-5-5-5-5-6-/7-7-7-7-7-7-7-7-7-
 9-9-9-9-9-9-9-9-9-\-6-\5-5-5-5-5-5-5-5-5-5-5-5-6-/7-7-7-7-7-7-7-7-7-
 7-7-7-7-7-7-7-7-7-\-4-\3-3-3-3-3-3-3-3-3-3-5-5-4-/5-5-5-5-5-5-5-5-5-
   

Outro  
E: ------------------------------------------------------------------
B: ------------------------------------------------------------------ 
G: ------------------------------------------------------------------
D: --12-5-7-7-7-12---------------------------------------------------
A: --10-5-7-7-7-10---------------------------------------------------
E: --10-3-5-5-5-10---------------------------------------------------  
          ----- strum these same three chords fast 
 
 
I guess that's it enjoy all!  
 
My band Unknown Element Rock! 
 
By Ben Cottage/lead guitarist
Comments