Busted - Sleeping With The Light On Chords & Tabs

 

Sleeping With The Light On Chords & Tabs

Busted Chords & Tabs

Version: 2 Type: Tab 0 ratings
1 star 2 stars 3 stars 4 stars 5 stars
comments

Sleeping With The Light On Tab

artist: Busted
title:  Sleeping With The Light On

tabbed by BigJoelC
dedicated to Fi

I tabbed out the chords and solo. The chords sound right
but I doubt they're perfect. Listen to the song for the
rhythm.

INTRO
e)-4--4--4--4--
b)-4--4--4--4--
g)-5--6--5--6--
d)-6--6--6--6--
a)-6--4--6--4--
e)-4-----4-----

VERSE - "along she came...."
-4--4--4--4--1--3--4--4--
-4--4--4--4--1--4--4--4--
-5--6--5--6--1--3--6--6--
-6--6--6--6--3--5--6--6--
-6--4--6--4--3--6--4--4--
-4-----4-----1-----------

CHORUS - "I feel her slipping...."
-4--3--1--1--
-4--4--2--2--
-5--3--1--1--  x2
-6--5--3--1--
-6--6--4--4--
-4-----------
[ Tab from: http://www.guitartabs.cc/tabs/b/busted/sleeping_with_the_light_on_tab_ver_2.html ]
this part plays over the chorus 

e)----20--21-20-18---18-18-18---------20---21----20----18-
b)-16-------------------------16---16----16----16----16---  x2

e)-15-16----
b)-------16-


BRIDGE - "I see the sight...."
-3--4--4-----4--3--4--3--
-4--4--4--8--6--4--4--4--
-5--6--5--8--6--5--6--3--
-5--6--6--8--6--5--6--5--
-3--4--6--6--4--3--4--6--
-------4-----------------

SOLO
---------------------------------------------------
---------------------------------------------------
-6-5-------------6-5---------6-5-------------------
-----6-5-5-6-6-------6-5-5-------6-5-5-6-6--8-10-8-
---------------------------------------------------
---------------------------------------------------
Comments