Busted - Sleeping With The Light On Chords & Tabs

 

Sleeping With The Light On Chords & Tabs

Busted Chords & Tabs

Version: 1 Type: Bass Tab 0 ratings
1 star 2 stars 3 stars 4 stars 5 stars
comments

Sleeping With The Light On Bass Tab

   
-----------------------------------------------------------------
sleeping with the light on - Busted
-----------------------------------------------------------------

Tabbed By : johhny bassist
e-mail: ibanez_ct_bass@hotmail.com

Tuning:standard

intro consists on guitar only, then a slide down on bass

G|---------------------------------------------------------------|
D|---------------------------------------------------------------|
A|-------------------------------------------------15/3----------|
E|---------------------------------------------------------------|
  
  Verse
G|---------------------------------------77----------------------|x2
D|---------------------------------------------------------------|
A|-----------22222222-33333333-55555555--------------------------|
E|--33333333-----------------------------------------------------|
  
  Chorus
G|---------------------------------------------------------------|
D|---------------------------------------------------------------|
A|-----------22222222---------55555555-22222222---------33-------|
E|--33333333----------33333333------------------33333333---------|

G|---------------------------------------------------------------|x2
D|---------------------------------------------------------------|
A|-----------22222222-33333333-55555555--------------------------|
E|--33333333-----------------------------------------------------|
[ Tab from: http://www.guitartabs.cc/tabs/b/busted/sleeping_with_the_light_on_btab.html ]
G|---------------------7-5---------------------------------------|x2
D|---------------------------------------------------------------|
A|-------2-22-3-33-5-5-------------------------------------------|
E|--3-33---------------------------------------------------------|

G|-----------------------7-5-------------------------7-5---------|
D|---------------------------------------------------------------|
A|-------2-----3-----5---------------2-----3-----5---------------|
E|--3--------------------------3--------------------------3333---|

G|---------4-------5-------7-------------------------------------|x2
D|--5---------4--------5------7----------------------------------|
A|-----5-----2--2----3--3----5-5---------------------------------|
E|----3-3--------------------------------------------------------|

G|---------------------------------------------------------------|x4
D|---------------------------------------------------------------|
A|------------22222222-33333333-55555555-------------------------|
E|---33333333----------------------------------------------------|
   
   end on a g
G|---------------------------------------------------------------|
D|---------------------------------------------------------------|
A|---------------------------------------------------------------|
E|----3----------------------------------------------------------|


| / slide up
| \ slide down
| h hammer-on
| p pull-off
| ~ vibrato
| + harmonic
| x Mute note 
 
 Comments 
 
please rate this tab, thanks
Comments