Busted - She Wants To Be Me Chords & Tabs

 

She Wants To Be Me Chords & Tabs

Busted Chords & Tabs

Version: 4 Type: Tab 0 ratings
1 star 2 stars 3 stars 4 stars 5 stars
comments

She Wants To Be Me Tab

   
                               SHE WANTS TO BE ME
                              As recorded by Busted
                  (From the 2003 Album A PRESENT FOR EVERYONE)

Words and Music by Charlie Simpson, James Bourne, Matt Willis, Lauren Christy, Scott
Spock and Graham Edwards

          E5                   B5                   A5
      0 2 2 x x x          7 9 9 x x x          5 7 7 x x x

Gtr I (E A D G B E) - 'Lead'
Gtr II (E A D G B E) - 'Rhythm'
Gtr III (E A D G B E) - 'Lead 2'

  Q=150
 4/4
  Gtr I
  W           Q  Q    Q    Q     Q  Q    Q    E E   +Q   Q    Q    Q
|----------||------------------|------------------|---------------------|
|----------||------------------|------------------|---------------------|
|----------||----8----6----4S==|=8--6----4----6-1-|-(1)S=8----6----4S===|
|----------||------------------|------------------|---------------------|
|----------||------------------|------------------|---------------------|
|----------||------------------|------------------|---------------------|
|
| Gtr II
| W           Q  E E +E  E E E   Q  E E +E  E E E    Q   E E +E  E E E
|----------||------------------|------------------|---------------------|
|----------||------------------|------------------|---------------------|
|----------||------------------|------------------|---------------------|
|----------||-9--9-9-(9)-9-9-9-|-4--4-4-(4)-4-4---|--6---6-6-(6)-6-6-6--|
|----------||-9--9-9-(9)-9-9-9-|-4--4-4-(4)-4-4-4-|--6---6-6-(6)-6-6-6--|
|----------||-7--7-7-(7)-7-7-7-|-2--2-2-(2)-2-2-2-|--4---4-4-(4)-4-4-4--|


  Q  Q    Q    E E    Q   Q    Q    Q    E E E E E E E E
|------------------|-------------------|-----------------|
|------------------|-------------------|-----------------|
|-9--8----6----8-4-|-(4)S=8----6----4S=|=9-8---9-8-------|
|------------------|-------------------|-----9-----9-7s9-|
|------------------|-------------------|-----------------|
|------------------|-------------------|-----------------|
|
| Q  E E +E  E E E    Q   E E +E  E Q    E E Q   E E E E
|------------------|-------------------|-----------------|
|------------------|-------------------|-----------------|
|-8--8-8-(8)-8-8-8-|--9---9-9-(9)-9-9--|-----------------|
|-8--8-8-(8)-8-8-8-|--9---9-9-(9)-9-9--|-4-4-4---4-4-4-4-|
|-6--6-6-(6)-6-6-6-|--7---7-7-(7)-7-7--|-4-4-4---4-4-4-4-|
|------------------|-------------------|-2-2-2---2-2-2-2-|


  +Q     Q   H         W                 W
|--------------------|-----------------|-----------------|
|--------------------|-----------------|-----------------|
|--------------------|-----------------|-----------------|
|-(9)\---------------|-----------------|-----------------|
|--------------------|-----------------|-----------------|
|--------------------|-----------------|-----------------|
|
| Gtr III
|  E   E E E E E E E   E E E E E E E E   E E E E E E E E
|--------------------|-----------------|-----------------|
|--------------------|-----------------|-----------------|
|--------------------|-----------------|-----------------|
|--------------------|-----------------|-8-8-x-x-8-8-x-x-|
|--9---9-x-x-9-9-x-x-|-9-9-x-x-9-9-x-x-|-6-6-x-x-6-6-x-x-|
|--7---7-x-x-7-7-x-x-|-7-7-x-x-7-7-x-x-|-----------------|


  Gtr III
  E E E E E E E E   E E E E E E E E   E E E E E E E E
|-----------------|-----------------|-----------------|
|-----------------|-----------------|-----------------|
|-----------------|-----------------|-----------------|
|-8-8-x-x-8-8-x-x-|-9-9-x-x-9-9-x-x-|-9-9-x-x-9-9-x-x-|
|-6-6-x-x-6-6-x-x-|-7-7-x-x-7-7-x-x-|-7-7-x-x-7-7-x-x-|
|-----------------|-----------------|-----------------|


                                      Gtr II
  E E E E E E E E   E E E E E E E E   E E Q  H
|-----------------|-----------------|-------------|
|-----------------|-----------------|-------------|
|-----------------|-----------------|-------------|
|-----------------|-----------------|-------------|
|-6-6-x-x-6-6-x-x-|-4-4-x-x-4-4-x-x-|-9-9---------|
|-4-4-x-x-4-4-x-x-|-2-2-x-x-2-2-x-x-|-7-7---------|


  E E Q  H      E E Q  H      E E Q  H      E E Q  H
|-------------|-------------|-------------|-------------|
|-------------|-------------|-------------|-------------|
|-------------|-------------|-------------|-------------|
|-------------|-8-8---------|-8-8---------|-9-9---------|
|-9-9---------|-6-6---------|-6-6---------|-7-7---------|
|-7-7---------|-------------|-------------|-------------|


                                           E5
                                           Gtr II
  W             W             H.         E S S
                                           | |
                                           / /

  E E Q  H      E E Q  H      E  E Q  H
|-------------|-------------|-------------------||
|-------------|-------------|-------------------||
|-------------|-------------|-------------------||
|-9-9---------|-------------|-------------------||
|-7-7---------|-6-6---------|-4--4--------------||
|-------------|-4-4---------|-2--2--------------||


                     B5                     E5                         B5
  H.              +E S S    H.           +E S S    H.               +E S S
  |                | | |    |             | | |    |                 | | |
  /                / / /    /             / / /    /                 / / /

  Gtr I
  Q    E E +E   Q    E     +E   Q.   H             Q     E E +E   Q    E
|-----11-9-(9)-11----9---|-(9)-11---------------|-------11-9-(9)-11----9---|
|------------------------|----------------------|--------------------------|
|------------------------|----------------------|--------------------------|
|------------------------|----------------------|--------------------------|
|------------------------|----------------------|--------------------------|
|------------------------|----------------------|--------------------------|
|
| Gtr III
| Q    E E +E   Q    E     +E   Q.   E E  Q       +Q     E E +E   Q    E
|------------------------|----------------------|--------------------------|
|------------------------|----------------------|--------------------------|
|------8-6-(6)--8----6---|-(6)--8---------------|--------8-6-(6)--8----6---|
|------------------------|-----------6-7--9-----|-(9)\---------------------|
|------------------------|----------------------|--------------------------|
|------------------------|----------------------|--------------------------|


                    A5
   H.            +E S S    Q   E E  E E  E E   W
   |              | | |    |   | |  | |  | |
   /              / / /    /   / /  / /  / /

  +E   Q.   E  E  E E     +Q   E E  E E  E E   W
|-(9)-11----9-11----9---|-(9)--9-9----9----9-|------------||
|----------------12-----|----------12---12---|------------||
|-----------------------|--------------------|------------||
|-----------------------|--------------------|------------||
|-----------------------|--------------------|------------||
|-----------------------|--------------------|------------||
|
|                                              Gtr II
|  E   Q.   E  E  E E     +Q   E E  E E  E E   H     H
|-----------------------|--------------------|------------||
|-----------------------|--------------------|------------||
|--6---8----6--8----6---|-(6)--6-6----6----6-|------------||
|-----------------9-----|-----------9----9---|-7\---------||
|-----------------------|--------------------|-7\---------||
|-----------------------|--------------------|-5\---------||


  Q  E E +E  E E E   Q  E E +E  E E E   Q  E E +E  E E E
|------------------|------------------|------------------|
|------------------|------------------|------------------|
|------------------|------------------|------------------|
|-9--9-9-(9)-9-9-9-|-4--4-4-(4)-4-4---|-6--6-6-(6)-6-6-6-|
|-9--9-9-(9)-9-9-9-|-4--4-4-(4)-4-4-4-|-6--6-6-(6)-6-6-6-|
|-7--7-7-(7)-7-7-7-|-2--2-2-(2)-2-2-2-|-4--4-4-(4)-4-4-4-|


  Q  E E +E  E E E   Q  E E +E  E E E    Q   E  E  +Q    E E
|------------------|------------------|----------------------|
|------------------|------------------|----------------------|
|-8--8-8-(8)-8-8-8-|-9--9-9-(9)-9-9-9-|-11--11-11-(11)--11-9-|
|-8--8-8-(8)-8-8-8-|-9--9-9-(9)-9-9-9-|-11--11-11-(11)--11-9-|
|-6--6-6-(6)-6-6-6-|-7--7-7-(7)-7-7-7-|--9---9--9--(9)---9-7-|
|------------------|------------------|----------------------|


                                      Gtr I
  W                  W                E E E E E E Q       E E E E E E E E
|-----------------|----------------||-------------------|-----------------|
|-----------------|----------------||-5-4---5-4---5b7---|-5-4---5-4---2s4-|
|-----------------|----------------||-----4-----4-------|-----4-----4-----|
|-----------------|----------------||-------------------|-----------------|
|-----------------|----------------||-------------------|-----------------|
|-----------------|----------------||-------------------|-----------------|
|
| Gtr II
| E E E E E E E E    q  Q  Q   Q      E E E E E E E   E   E E E E E E E E
|-----------------|----------------||-------------------|-----------------|
|-----------------|----------------||-------------------|-----------------|
|-9-9-9-9-9-9-9-9-|-11-------------||-------------------|-----------------|
|-9-9-9-9-9-9-9-9-|-11-------------||-------------------|-----------------|
|-7-7-7-7-7-7-7-7-|--9-------------||-9-9-9-9-9-9-7h==9-|-9-9-9-9-9-9-7h9-|
|-----------------|-----------12\--||-7-7-7-7-7-7-7-----|-7-7-7-7-7-7-7---|


  Gtr II
  E E Q  H      E E Q  H      E E Q  H
|-------------|-------------|-------------|
|-------------|-------------|-------------|
|-------------|-------------|-------------|
|-------------|-------------|-------------|
|-7s6---------|-9-9---------|-7s6---------|
|-------------|-7-7---------|-------------|


  E E Q  H      E E E E H      E E Q  H
|-------------|--------------|-------------|
|-------------|--------------|-------------|
|-------------|--------------|-------------|
|-8-8---------|--------------|-9-9---------|
|-6-6---------|-7s6----------|-7-7---------|
|-------------|-----7-0------|-------------|


  E E Q  H      E E Q  H      E E E E H      E E Q  H
|-------------|-------------|--------------|-------------|
|-------------|-------------|--------------|-------------|
|-------------|-------------|-9s8---9------|-------------|
|-------------|-------------|--------------|-------------|
|-6-6---------|-4-4---------|-7s6----------|-9-9---------|
|-4-4---------|-2-2---------|--------------|-7-7---------|


  E E E E H      E E Q  H      E E E E H
|--------------|-------------|--------------|
|--------------|-------------|--------------|
|-9s8---8------|-------------|-9s8----------|
|--------------|-8-8---------|--------------|
|-7s6----------|-6-6---------|-7s6----------|
|--------------|-------------|-----7-0------|


                                          E5
                              Gtr II
  W             W             H      Q  E S S
                                          | |
                                          / /

  E E Q  H      E E Q  H      E E Q  H
|-------------|-------------|------------------||
|-------------|-------------|------------------||
|-------------|-------------|------------------||
|-9-9---------|-------------|------------------||
|-7-7---------|-6-6---------|-4-4--------------||
|-------------|-4-4---------|-2-2--------------||


  $
                     B5                     E5                         B5
  H.              +E S S    H.           +E S S    H.               +E S S
  |                | | |    |             | | |    |                 | | |
  /                / / /    /             / / /    /                 / / /

  Gtr I
  Q    E E +E   Q    E     +E   Q.   H             Q     E E +E   Q    E
|-----11-9-(9)-11----9---|-(9)-11---------------|-------11-9-(9)-11----9---|
|------------------------|----------------------|--------------------------|
|------------------------|----------------------|--------------------------|
|------------------------|----------------------|--------------------------|
|------------------------|----------------------|--------------------------|
|------------------------|----------------------|--------------------------|
|
| Gtr III
| Q    E E +E   Q    E     +E   Q.   E E  Q       +Q     E E +E   Q    E
|------------------------|----------------------|--------------------------|
|------------------------|----------------------|--------------------------|
|------8-6-(6)--8----6---|-(6)--8---------------|--------8-6-(6)--8----6---|
|------------------------|-----------6-7--9-----|-(9)\---------------------|
|------------------------|----------------------|--------------------------|
|------------------------|----------------------|--------------------------|


                    E5                     B5
   H.            +E S S    H.           +E S S   W
   |              | | |    |             | | |
   /              / / /    /             / / /

  +E   Q.   E  E  E E     +Q   E E  E E  E E     W
|-(9)-11----9-11----9---|-(9)--9-9----9----9---|------------||
|----------------12-----|----------12---12-----|------------||
|-----------------------|----------------------|------------||
|-----------------------|----------------------|------------||
|-----------------------|----------------------|------------||
|-----------------------|----------------------|------------||
|
|                                                Gtr II
| +E   Q.   E  E  E E     +Q   E E  E E  E E     H     H
|-----------------------|----------------------|------------||
|-----------------------|----------------------|------------||
|-(6)--8----6--8----6---|-(6)--6-6----6----6---|------------||
|-----------------9-----|-----------9----9-----|-7\---------||
|-----------------------|----------------------|-7\---------||
|-----------------------|----------------------|-5\---------||


  Q   E E +E  E E E   Q   E E +E  E E    E   Q   E E +E  E E E
|-------------------|----------------------|-------------------|
|-------------------|----------------------|-------------------|
|-------------------|----------------------|-------------------|
|-9---9-9-(9)-9-9-9-|-4---4-4-(4)-4-4------|-6---6-6-(6)-6-6-6-|
|-9---9-9-(9)-9-9-9-|-4---4-4-(4)-4-4----4-|-6---6-6-(6)-6-6-6-|
|-7---7-7-(7)-7-7-7-|-2---2-2-(2)-2-2----2-|-4---4-4-(4)-4-4-4-|
|
| Gtr III
| E E E E  E  E E E   E E E E  E  E E    E   E E E E  E  E E E
|-------------------|----------------------|-------------------|
|-7-7-7-7--7--7-7-7-|-7-7-7-7--7--7-7b9==7r|=7-7-7-7--7--7-7-7-|
|-------------------|----------------------|-------------------|
|-------------------|----------------------|-------------------|
|-------------------|----------------------|-------------------|
|-------------------|----------------------|-------------------|

[ Tab from: http://www.guitartabs.cc/tabs/b/busted/she_wants_to_be_me_tab_ver_4.html ]
  Q   E E +E  E E    E   Q   E E +E  E E E    Q    E  E  +Q     E    E
|----------------------|-------------------|----------------------------|
|----------------------|-------------------|----------------------------|
|-8---8-8-(8)-8-8----8-|-9---9-9-(9)-9-9-9-|-11---11-11-(11)---11----9--|
|-8---8-8-(8)-8-8----8-|-9---9-9-(9)-9-9-9-|-11---11-11-(11)---11----9--|
|-6---6-6-(6)-6-6----6-|-7---7-7-(7)-7-7-7-|--9----9--9--(9)----9----7--|
|----------------------|-------------------|----------------------------|
|
| E E E E  E  E E    E   E E E E  E  E E E    E E  E  E   E  E  E    E
|----------------------|-------------------|----------------------------|
|-7-7-7-7--7--7-7b9==7r|=7-7-7-7--7--7-7-7-|--7-7--7--7---7--7--7b9==7r=|
|----------------------|-------------------|----------------------------|
|----------------------|-------------------|----------------------------|
|----------------------|-------------------|----------------------------|
|----------------------|-------------------|----------------------------|


         To Coda
  E E E E E E E E    q  Q  Q   Q
|-----------------|----------------||
|-----------------|----------------||
|-9-9-9-9-9-9-9-9-|-11-------------||
|-9-9-9-9-9-9-9-9-|-11-------------||
|-7-7-7-7-7-7-7-7-|--9-------------||
|-----------------|-----------12\--||
|
| E E E E E E E E
|-----------------|----------------||
|-7-7-7-7-7-7-7-7-|----------------||
|-----------------|----------------||
|-----------------|----------------||
|-----------------|----------------||
|-----------------|----------------||


  E E E E E E E    E    E  E  E  E  E  E  E  E
|--------------------|-------------------------|
|-7-7-7-7-7-7-7----7S|=11-11-11-11-11-11-11-11-|
|--------------------|-------------------------|
|--------------------|-------------------------|
|--------------------|-------------------------|
|--------------------|-------------------------|
|
| E E E E E E E    E    E  E  E  E  E  E  E  E
|--------------------|-------------------------|
|-7-7-7-7-7-7-7b9==7r|==7--7--7--7--7--7--7--7-|
|--------------------|-------------------------|
|--------------------|-------------------------|
|--------------------|-------------------------|
|--------------------|-------------------------|


   E  E  E  E  E  E  E     E
|----------------------------|
|-12-12-12-12-12-12-12----12-|
|----------------------------|
|----------------------------|
|----------------------------|
|----------------------------|
|
|  E  E  E  E  E  E  E     E
|----------------------------|
|--7--7--7--7--7--7--7b9===7r|
|----------------------------|
|----------------------------|
|----------------------------|
|----------------------------|


   E  E  E  E  E  E  E  E    E  E  E  E  E  E  E  E
|-------------------------|-------------------------|
|-12-12-12-12-12-12-12-12-|-12-12-12-12-12-12-12-12-|
|-------------------------|-------------------------|
|-------------------------|-------------------------|
|-------------------------|-------------------------|
|-------------------------|-------------------------|
|
|  E  E  E  E  E  E  E  E    E  E  E  E  E  E  E  E
|-------------------------|-------------------------|
|--7--7--7--7--7--7--7--7-|--7--7--7--7--7--7--7--7-|
|-------------------------|-------------------------|
|-------------------------|-------------------------|
|-------------------------|-------------------------|
|-------------------------|-------------------------|


   E  E  E  E  E  E  E     E    E  E  E  E  E  E  E  E    q  Q  H
|----------------------------|-------------------------|-------------||
|-12-12-12-12-12-12-12----12-|-12-12-12-12-12-12-12-12-|-12----------||
|----------------------------|-------------------------|-------------||
|----------------------------|-------------------------|-------------||
|----------------------------|-------------------------|-------------||
|----------------------------|-------------------------|-------------||
|
|  E  E  E  E  E  E  E     E    E  E  E  E  E  E  E  E    q  Q  H
|----------------------------|-------------------------|-------------||
|--7--7--7--7--7--7--7b9===7r|==7--7--7--7--7--7--7--7-|--7----------||
|----------------------------|-------------------------|-------------||
|----------------------------|-------------------------|-------------||
|----------------------------|-------------------------|-------------||
|----------------------------|-------------------------|-------------||


  Gtrs II, III
     PM-------------------------|
  Q  E E E E E E   Q  E E E E E E
|----------------|----------------|
|------------4---|----------------|
|----4-4-6-6---4-|----4-4-6-6-4-6-|
|----------------|----------------|
|----------------|----------------|
|----------------|----------------|


     PM-------------------------|
  Q  E E E E E E   Q  E E E E E E
|----------------|----------------|
|----------------|----------------|
|----4-4-6-6-4-4-|----4-4-6-6-4-4-|
|----------------|----------------|
|----------------|----------------|
|----------------|----------------|


  Gtr I
  W                H      H
|----------------|-----------------|
|----------------|-----------------|
|----------------|-----------------|
|-9--------------|-8S=====6\-------|
|----------------|-----------------|
|----------------|-----------------|
|
| Gtr II
|    PM------------------------|
| Q  E E E E E E   Q  E E E  E Q
|----------------|-----------------|
|----------------|-----------------|
|----4-4-6-6-4-4-|----4-4-6--6-4---|
|----------------|-----------------|
|----------------|-----------------|
|----------------|-----------------|
|
| Gtr III
|    PM--------|      PM---------|
| Q  E E E E E E   Q  E E E  E E E
|----------------|-----------------|
|----------------|-----------------|
|----8-8-9-9-8-8-|----8-8-9--9-8-8-|
|----------------|-----------------|
|----------------|-----------------|
|----------------|-----------------|


   W                W          +H.       Q
|-----------------|----------|---------------|
|-----------------|----------|---------------|
|-----------------|----------|---------------|
|-----------------|-4--------|-(4)\------4\--|
|-\6--------------|-4--------|-(4)\------4\--|
|-----------------|-2--------|-(2)\------2\--|
|
|     PM--------|
|  Q  E E E E E E   W          +H.       Q
|-----------------|----------|---------------|
|-----------------|----------|---------------|
|-----4-4-6-6-4-4-|----------|---------------|
|-----------------|-4--------|-(4)\------4\--|
|-----------------|-4--------|-(4)\------4\--|
|-----------------|-2--------|-(2)\------2\--|
|
|     PM--------|
|  Q  E E E E E E   W          +H.       Q
|-----------------|----------|---------------|
|-----------------|----------|---------------|
|-----8-8-9-9-8-8-|----------|---------------|
|-----------------|-4--------|-(4)\------4\--|
|-----------------|-4--------|-(4)\------4\--|
|-----------------|-2--------|-(2)\------2\--|


  Q  Q    Q    Q     Q  Q    Q    E E   +Q   Q    Q    Q
|------------------|------------------|--------------------|
|------------------|------------------|--------------------|
|----8----6----4S==|=8--6----4----6-1-|-(1)S=8----6----4S==|
|------------------|------------------|--------------------|
|------------------|------------------|--------------------|
|------------------|------------------|--------------------|
|
| Q  E E +E  E E E   Q  E E +E  E E E    Q   E E +E  E E E
|------------------|------------------|--------------------|
|------------------|------------------|--------------------|
|------------------|------------------|--------------------|
|-9--9-9-(9)-9-9-9-|-4--4-4-(4)-4-4---|--6---6-6-(6)-6-6-6-|
|-9--9-9-(9)-9-9-9-|-4--4-4-(4)-4-4-4-|--6---6-6-(6)-6-6-6-|
|-7--7-7-(7)-7-7-7-|-2--2-2-(2)-2-2-2-|--4---4-4-(4)-4-4-4-|


                                           D.S. al Coda
  Q  Q    Q    E E    Q   Q    Q    Q    E E E E E E E E
|------------------|-------------------|-----------------||
|------------------|-------------------|-----------------||
|-9--8----6----8-4-|-(4)S=8----6----4S=|=9-8---9-8-------||
|------------------|-------------------|-----9-----9-7s9-||
|------------------|-------------------|-----------------||
|------------------|-------------------|-----------------||
|
| Q  E E +E  E E E    Q   E E +E  E Q    E E Q   E E E E
|------------------|-------------------|-----------------||
|------------------|-------------------|-----------------||
|-8--8-8-(8)-8-8-8-|--9---9-9-(9)-9-9--|-----------------||
|-8--8-8-(8)-8-8-8-|--9---9-9-(9)-9-9--|-4-4-4---4-4-4-4-||
|-6--6-6-(6)-6-6-6-|--7---7-7-(7)-7-7--|-4-4-4---4-4-4-4-||
|------------------|-------------------|-2-2-2---2-2-2-2-||


  &
   W                E  E  E  E  E   E  E     E
|---------------||-----------------------------|
|---------------||-12-12-12-12-12--12-12----12-|
|---------------||-----------------------------|
|---------------||-----------------------------|
|---------------||-----------------------------|
|---------------||-----------------------------|
|
|  q  Q   H         Q     E  E +E   E  E     E
|---------------||-----------------------------|
|---------------||-----------------------------|
|-11------------||-----------------------------|
|-11------------||--9-----9--9-(9)--9--9-----9-|
|--9------------||--9-----9--9-(9)--9--9-----9-|
|--------17\----||--7-----7--7-(7)--7--7-----7-|
|
|                   E  E  E  E  E   E  E     E
|---------------||-----------------------------|
|---------------||--7--7--7--7--7---7--7b9===7r|
|---------------||-----------------------------|
|---------------||-----------------------------|
|---------------||-----------------------------|
|---------------||-----------------------------|


   E  E  E  E  E   E  E  E    E  E  E  E  E   E  E     E
|--------------------------|------------------------------|
|-12-12-12-12-11--11-11-11-|-12-12-12-12-12--12-12----12--|
|--------------------------|------------------------------|
|--------------------------|------------------------------|
|--------------------------|------------------------------|
|--------------------------|------------------------------|
|
|  Q     E  E +E   E  E  E    Q     E  E +E   E  E     E
|--------------------------|------------------------------|
|--------------------------|------------------------------|
|--------------------------|------------------------------|
|--4-----4--4-(4)--4--4----|--6-----6--6-(6)--6--6-----6--|
|--4-----4--4-(4)--4--4--4-|--6-----6--6-(6)--6--6-----6--|
|--2-----2--2-(2)--2--2--2-|--4-----4--4-(4)--4--4-----4--|
|
|  E  E  E  E  E   E  E  E    E  E  E  E  E   E  E     E
|--------------------------|------------------------------|
|--7--7--7--7--7---7--7--7-|--7--7--7--7--7---7--7b9===7r=|
|--------------------------|------------------------------|
|--------------------------|------------------------------|
|--------------------------|------------------------------|
|--------------------------|------------------------------|


   E  E  E  E  E   E  E     E    E  E  E  E  E   E  E  E
|-----------------------------|--------------------------|
|-12-12-12-12-12--12-12----12-|-12-12-12-12-12--12-12-12-|
|-----------------------------|--------------------------|
|-----------------------------|--------------------------|
|-----------------------------|--------------------------|
|-----------------------------|--------------------------|
|
|  Q     E  E +E   E  E     E    Q     E  E +E   E  Q
|-----------------------------|--------------------------|
|-----------------------------|--------------------------|
|--8-----8--8-(8)--8--8-----8-|--9-----9--9-(9)--9--9----|
|--8-----8--8-(8)--8--8-----8-|--9-----9--9-(9)--9--9----|
|--6-----6--6-(6)--6--6-----6-|--7-----7--7-(7)--7--7----|
|-----------------------------|--------------------------|
|
|  E  E  E  E  E   E  E     E    E  E  E  E  E   E  E  E
|-----------------------------|--------------------------|
|--7--7--7--7--7---7--7b9===7r|==7--7--7--7--7---7--7--7-|
|-----------------------------|--------------------------|
|-----------------------------|--------------------------|
|-----------------------------|--------------------------|
|-----------------------------|--------------------------|


   E  E  E  E   E   E  E     E    E  E  E  E  E  E  E  E
|------------------------------|-------------------------|
|-12-12-12-12--12--12-12----12-|-12-12-12-12-12-12-12-12-|
|------------------------------|-------------------------|
|------------------------------|-------------------------|
|------------------------------|-------------------------|
|------------------------------|-------------------------|
|
|  Q     E  E  +Q      E     E    E  E  E  E  E  E  E  E
|------------------------------|-------------------------|
|------------------------------|-------------------------|
|-11----11-11-(11)----11-----9-|--9--9--9--9--9--9--9--9-|
|-11----11-11-(11)----11-----9-|--9--9--9--9--9--9--9--9-|
|--9-----9--9--(9)-----9-----7-|--7--7--7--7--7--7--7--7-|
|------------------------------|-------------------------|
|
|  E  E  E  E   E   E  E     E    E  E  E  E  E  E  E  E
|------------------------------|-------------------------|
|--7--7--7--7---7---7--7b9===7r|==7--7--7--7--7--7--7--7-|
|------------------------------|-------------------------|
|------------------------------|-------------------------|
|------------------------------|-------------------------|
|------------------------------|-------------------------|


   W             q  Q  H       q  Q  H
|-------------|-------------|-------------|
|-------------|-12----------|-12----------|
|-------------|-11----------|-11----------|
|-------------|-------------|-------------|
|-------------|-------------|-------------|
|-------------|-------------|-------------|
|
|  q  Q  H       q  Q  H       q  Q  H
|-------------|-------------|-------------|
|-------------|-------------|-------------|
|-11----------|-11----------|-11----------|
|-11----------|-11----------|-11----------|
|--9----------|--9----------|--9----------|
|-------------|-------------|-------------|


  W                 W                W
|----------------|-----------------|-------*|
|----------------|-----------------|-------*|
|----------------|-----------------|-------*|
|----------------|-----------------|-------*|
|----------------|-----------------|-------*|
|----------------|-----------------|-------*|
|
|                                    TP
| Q.   E +Q   Q    +E  Q.   +H       W
|----------------|-----------------|-------*|
|----------------|-----------------|-------*|
|-7-----------6--|-(6)-------------|-------*|
|-7----7-(7)--6--|-(6)-7----(7)----|-------*|
|-5----7-(7)--4--|-(4)-7----(7)----|-------*|
|------5-(5)-----|-----5----(5)----|-x/----*|


Duration Legend
---------------
W - whole; H - half; Q - quarter; E - 8th; S - 16th; T - 32nd; X - 64th; a - acciaccatura
+ - note tied to previous; . - note dotted; .. - note double dotted
Uncapitalized letters represent notes that are staccato (1/2 duration)
Irregular groupings are notated above the duration line
Duration letters will always appear directly above the note/fret number it represents the
duration for.  Duration letters with no fret number below them represent rests.  Multi-
bar rests are notated in the form Wxn, where n is the number of bars to rest for.  Low
melody durations appear below the staff

Tablature Legend
----------------
 h   - hammer-on
 p   - pull-off
 b   - bend
 pb  - pre-bend
 r   - bend release (if no number after the r, then release immediately)
 /\  - slide into or out of (from/to "nowhere")
 s   - legato slide
 S   - shift slide
  - natural harmonic
[n]  - artificial harmonic
n(n) - tapped harmonic
 ~   - vibrato
 tr  - trill
 T   - tap
 TP  - trem. picking
 PM  - palm muting
\n/  - tremolo bar dip; n = amount to dip
 \n  - tremolo bar down
 n/  - tremolo bar up
/n\  - tremolo bar inverted dip
 =   - hold bend; also acts as connecting device for hammers/pulls
 <>  - volume swell (louder/softer)
 x   - on rhythm slash represents muted slash
 o   - on rhythm slash represents single note slash

Misc Legend
-----------
 |  - bar
||  - double bar
||o - repeat start
o|| - repeat end
*|  - double bar (ending)
 :  - bar (freetime)
 $  - Segno
 &  - Coda
Tempo markers -  = BPM(8/16=s8/s16), where s8 = swing 8ths, s16 = swing 16ths


***************************************************************************************
* Generated using Power Tab Editor by Brad Larsen - http://powertab.guitarnetwork.org *
***************************************************************************************
Comments