Busted - She Wants To Be Me Chords & Tabs

 

She Wants To Be Me Chords & Tabs

Busted Chords & Tabs

Version: 3 Type: Tab 0 ratings
1 star 2 stars 3 stars 4 stars 5 stars
comments

She Wants To Be Me Tab

   
-------------------------------------------------------------------------------
			     She Wants To Be Me - Busted
-------------------------------------------------------------------------------
Tabbed by:Jay Lee 
Email:Jay_LvZ_Louise@hotmail.com

Tuning: Standard E

Intro

lead guitar
e|---------------------------------------------------------------------------|
B|---------------------------------------------------------------------------|
G|--8-6-4-8-6-4-6-----8-6-4-9-8-6-8-4--8-6-4-9-8---9-8-----------------------|
D|----------------6------------------------------9-----9-7-9-/0--------------|
A|---------------------------------------------------------------------------|
E|---------------------------------------------------------------------------|

rhythm guitar
e|---------------------------------------------------------------------------|
B|---------------------------------------------------------------------------|
G|--4>----------------------8>--------9>-------------------4-----------------|
D|--4>----4>--------6>------8>--------9>------4>-----------4-----------------|
A|--2>----4>--------6>------6>--------7>------4>-----------2-----------------|
E|--------2>--------4>------------------------2>-----------------------------|

verse 1

At first I told myself I need my head inspected         } no distinguishable
I notice little things, same t-shirt and sunglasse      } guitar during
Then it got weirder see, she cut her hair like me       } this half 
She brought a red guitar, kept driving round in my car  } of the verse

e|---------------------------------------------------------------------------|
B|---------------------------------------------------------------------------|
G|---------------------------------------------------------------------------|
D|-99----------------------99------------------------------------------------|
A|-99----------------------99------------------------------------------------|
E|-77----------------------77------------------------------------------------|
   I'm kissing her and she, she slams me against the wall 
e|---------------------------------------------------------------------------|
B|---------------------------------------------------------------------------|
G|-88---------------------88-------------------------------------------------|
D|-88---------------------88-------------------------------------------------|
A|-66---------------------66-------------------------------------------------|
E|---------------------------------------------------------------------------|
   She crashed into a bus chasing some supermodel
e|---------------------------------------------------------------------------|
B|---------------------------------------------------------------------------|
G|-99--------------------99--------------------------------------------------|
D|-99--------------------99--------------------------------------------------|
A|-77--------------------77--------------------------------------------------|
E|---------------------------------------------------------------------------|
   She analysed my smile, she memorised my phonebook
e|---------------------------------------------------------------------------|
B|---------------------------------------------------------------------------|
G|---------------------------------------------------------------------------|
D|-66--------------------------44--------------------------------------------|
A|-66--------------------------44--------------------------------------------|
E|-44--------------------------22--------------------------------------------|
   She always wears my clothes, her favourite words are f*** off

pre-chorous

lead guitar
e|---------------------------------------------------------------------------|
B|---------------------------------------------------------------------------|
G|-8---6-----8-----6----8-----6/1--------------------------------------------|
D|---------------------------------------------------------------------------|
A|---------------------------------------------------------------------------|
E|---------------------------------------------------------------------------|
   She looks like, does like, sounds like me
e|---------------------------------------------------------------------------|
B|---------------------------------------------------------------------------|
G|-8-----6----8---6---8----8-9---6#------------------------------------------|
D|-----------------------------9---------------------------------------------|
A|---------------------------------------------------------------------------|
E|---------------------------------------------------------------------------|
   She's stealing my identity,      And I'm begging you

rhythm guitar
e|---------------------------------------------------------------------------|
B|---------------------------------------------------------------------------|
G|---------------------4>----------------------------------------------------|
D|-2>------------------4>--------------------2>------------------------------|
A|-2>------------------2>--------------------2>------------------------------|
E|-0>----------------------------------------0>------------------------------|
   She looks like, does like, sounds like me
e|---------------------------------------------------------------------------|
B|---------------------------------------------------------------------------|
G|--------------------------2>-#---------------------------------------------|
D|------------------4>------2>-#---------------------------------------------|
A|------------------4>------0>-#---------------------------------------------|
E|------------------2>---------#---------------------------------------------|
   She's stealing my identity, And I'm begging you

chorous

e|---------------------------------------------------------------------------|
B|---------------------------------------------------------------------------|
G|-4>------------------------------------------------------------------------|
D|-4>------------------4>----------------------------------------------------|
A|-2>------------------4>----------------------------------------------------|
E|---------------------2>----------------------------------------------------|
   Somebody notice me, somebody notice
e|---------------------------------------------------------------------------|
B|---------------------------------------------------------------------------|
G|-----------------------8>-----------------9>-------------------------------|
D|-----6>----------------8>-----------------9>-------------------------------|
A|-----6>----------------6>-----------------7>-------------------------------|
E|-----4>--------------------------------------------------------------------|
   I'm fading away here, what I got to do to make you see
e|---------------------------------------------------------------------------|
B|---------------------------------------------------------------------------|
G|-----11>-------------9>----------------------------------------------------|
D|-----11>-------------9>----------4#----------------------------------------|
A|------9>-------------7>----------4#----------------------------------------|
E|---------------------------------2#----------------------------------------|
   My girlfriend is a wannabe, And she wants to be me

after chorous solo

e|---------------------------------------------------------------------------|
B|---------------------------------------------------------------------------|
G|--9-8---9-8---11---9-8---9-8-----------------------------------------------|
D|------9-----9----------9-----9-7-9-----------------------------------------|
A|---------------------------------------------------------------------------|
E|---------------------------------------------------------------------------|

verse 2----------1. = first half of verse, 2. = 2nd half of verse (saves me 
                                                  writin it all out twice lol)
e|---------------------------------------------------------------------------|
B|---------------------------------------------------------------------------|
G|---------------------------------------------------------------------------|
D|---------------------------------------------------------------------------|
A|-7-6-----------------------------------------------------------------------|
E|-----7-7----------------------7-7------------------------------------------|
 1.I'm saying something's wrong, she's out back playing soccer
 2.Don't need no special help, no need to see a doctor
e|---------------------------------------------------------------------------|
B|---------------------------------------------------------------------------|
G|---------------------------------------------------------------------------|
D|---------------------------------------------------------------------------|
A|-7-6-------------------6-6-------------------------------------------------|
E|---------------------------------------------------------------------------|
 1.She used to do ballet, now she's a heavy smoker
 2.I know you're worried, but I'm telling you just watch her
e|---------------------------------------------------------------------------|
B|---------------------------------------------------------------------------|
G|---------------------------------------------------------------------------|
D|---------------------------------------------------------------------------|
A|-7-6---------------------7-7-----------------------------------------------|
E|-----7-0-------------------------------------------------------------------|
 1.She's so obsessed with, now she stands up to pee
 2.It's like she's cracked my code, knows things I never spoke off
e|---------------------------------------------------------------------------|
B|---------------------------------------------------------------------------|
G|---------------------------------------------------------------------------|
D|---------------------------------------------------------------------------|
A|---------------------------------------------------------------------------|
E|-4-4----------------------2-2----------------------------------------------|
 1.And now her stupid games have started taking over
 2.She wants sex all the time and still finds time to j*** off 

pre-chorous

lead guitar
e|---------------------------------------------------------------------------|
B|---------------------------------------------------------------------------|
G|-8---6-----8-----6----8-----6/1--------------------------------------------|
D|---------------------------------------------------------------------------|
A|---------------------------------------------------------------------------|
E|---------------------------------------------------------------------------|
   She looks like, does like, sounds like me
e|---------------------------------------------------------------------------|
B|---------------------------------------------------------------------------|
G|-8-----6----8---6---8----8-9---6#------------------------------------------|
D|-----------------------------9---------------------------------------------|
A|---------------------------------------------------------------------------|
E|---------------------------------------------------------------------------|
   She's stealing my identity,      And I'm begging you
[ Tab from: http://www.guitartabs.cc/tabs/b/busted/she_wants_to_be_me_tab_ver_3.html ]
rhythm guitar
e|---------------------------------------------------------------------------|
B|---------------------------------------------------------------------------|
G|---------------------4>----------------------------------------------------|
D|-2>------------------4>--------------------2>------------------------------|
A|-2>------------------2>--------------------2>------------------------------|
E|-0>----------------------------------------0>------------------------------|
   She looks like, does like, sounds like me
e|---------------------------------------------------------------------------|
B|---------------------------------------------------------------------------|
G|--------------------------2>-#---------------------------------------------|
D|------------------4>------2>-#---------------------------------------------|
A|------------------4>------0>-#---------------------------------------------|
E|------------------2>---------#---------------------------------------------|
   She's stealing my identity, And I'm begging you!

chorous

e|--14>---         
B|--12>---         there seems to be
G|--------         a guitar playing
D|--------         this constantly
A|--------         during this chorous
E|--------


e|---------------------------------------------------------------------------|
B|---------------------------------------------------------------------------|
G|-4>------------------------------------------------------------------------|
D|-4>------------------4>----------------------------------------------------|
A|-2>------------------4>----------------------------------------------------|
E|---------------------2>----------------------------------------------------|
   Somebody notice me, somebody notice
e|---------------------------------------------------------------------------|
B|---------------------------------------------------------------------------|
G|-----------------------8>-----------------9>-------------------------------|
D|-----6>----------------8>-----------------9>-------------------------------|
A|-----6>----------------6>-----------------7>-------------------------------|
E|-----4>--------------------------------------------------------------------|
   I'm fading away here, what I got to do to make you see
e|---------------------------------------------------------------------------|
B|---------------------------------------------------------------------------|
G|-----11>-------------9>----------------------------------------------------|
D|-----11>-------------9>----------4#----------------------------------------|
A|------9>-------------7>----------4#----------------------------------------|
E|---------------------------------2#----------------------------------------|
   My girlfriend is a wannabe, And she wants to be

e|---------------------------------------------------------------------------|
B|---------------------------------------------------------------------------|
G|-4>------------------------------------------------------------------------|
D|-4>------------------4>----------------------------------------------------|
A|-2>------------------4>----------------------------------------------------|
E|---------------------2>----------------------------------------------------|
   Me im not jokin she wont stop provoking me
e|---------------------------------------------------------------------------|
B|---------------------------------------------------------------------------|
G|-----------------------8>-----------------9>-------------------------------|
D|-----6>----------------8>-----------------9>-------------------------------|
A|-----6>----------------6>-----------------7>-------------------------------|
E|-----4>--------------------------------------------------------------------|
       im goin under     what i gotta do to make you see
e|---------------------------------------------------------------------------|
B|---------------------------------------------------------------------------|
G|-----11>-------------9>----------------------------------------------------|
D|-----11>-------------9>----------4#----------------------------------------|
A|------9>-------------7>----------4#----------------------------------------|
E|---------------------------------2#----------------------------------------|
   My girlfriend is a wannabe, And she wants to be

bridge

e|---------------------------------------------------------------------------|
B|-----0-0-2-2-4-4-----------0-0-2-2-4-4-------------------------------------|
G|-1-1-----------------------------------------------------------------------|
D|-----------------------4-4-------------------------------------------------|
A|---------------------------------------------ALL BRIDGE IS PALM MUTED------|
E|---------------------------------------------------------------------------|
   I'm in the loony bin, Wearing a pale pink nighty
e|---------------------------------------------------------------------------|
B|-----0-0-2-2-4-4-----------------------0-0-2-2-4-4-------------------------|
G|---------------------------------------------------------------------------|
D|-2-2-------------------------------4-4-------------------------------------|
A|---------------------------------------------ALL BRIDGE IS PALM MUTED------|
E|---------------------------------------------------------------------------|
   The nurse comes through the door, And whispers so politely
e|---------------------------------------------------------------------------|
B|-----4-4-2-2-4-4-----------------------4-4-2-2-4-4-------------------------|
G|-1-1-----------------------------------------------------------------------|
D|-----------------------------------4-4-------------------------------------|
A|----------------------------------------------ALL BRIDGE IS PALM MUTED-----|
E|---------------------------------------------------------------------------|
   Your boyfriend's here to see you, Look pretty, take a bath
e|---------------------------------------------------------------------------|
B|-----4-4-2-2-4-4-----------------ALL BRIDGE IS PALM MUTED------------------|
G|---------------------------------------------------------------------------|
D|-2-2---------------------4<<<<<(except this one)---------------------------|
A|---------------------------------------------------------------------------|
E|---------------------------------------------------------------------------|
   I love his s***** band, Can I get his autograph?'

solo (exactly same as intro)

e|---------------------------------------------------------------------------|
B|---------------------------------------------------------------------------|
G|--8-6-4-8-6-4-6-----8-6-4-9-8-6-8-4--8-6-4-9-8---9-8-----------------------|
D|----------------6------------------------------9-----9-7-9-----------------|
A|---------------------------------------------------------------------------|
E|---------------------------------------------------------------------------|

pre-chorous

lead guitar
e|---------------------------------------------------------------------------|
B|---------------------------------------------------------------------------|
G|-8---6-----8-----6----8-----6/1--------------------------------------------|
D|---------------------------------------------------------------------------|
A|---------------------------------------------------------------------------|
E|---------------------------------------------------------------------------|
   She looks like, does like, sounds like me
e|---------------------------------------------------------------------------|
B|---------------------------------------------------------------------------|
G|-8-----6----8---6---8----8-9---6#------------------------------------------|
D|-----------------------------9---------------------------------------------|
A|---------------------------------------------------------------------------|
E|---------------------------------------------------------------------------|
   She's stealing my identity,      And I'm begging you

rhythm guitar
e|---------------------------------------------------------------------------|
B|---------------------------------------------------------------------------|
G|---------------------4>----------------------------------------------------|
D|-2>------------------4>--------------------2>------------------------------|
A|-2>------------------2>--------------------2>------------------------------|
E|-0>----------------------------------------0>------------------------------|
   She looks like, does like, sounds like me
e|---------------------------------------------------------------------------|
B|---------------------------------------------------------------------------|
G|--------------------------2>-#---------------------------------------------|
D|------------------4>------2>-#---------------------------------------------|
A|------------------4>------0>-#---------------------------------------------|
E|------------------2>---------#---------------------------------------------|
   She's stealing my identity, And I'm begging you!

chorous

e|--14>---         
B|--12>---         there seems to be
G|--------         a guitar playing
D|--------         this constantly
A|--------         during this chorous
E|--------


e|---------------------------------------------------------------------------|
B|---------------------------------------------------------------------------|
G|-4>------------------------------------------------------------------------|
D|-4>------------------4>----------------------------------------------------|
A|-2>------------------4>----------------------------------------------------|
E|---------------------2>----------------------------------------------------|
   Somebody notice me, somebody notice
e|---------------------------------------------------------------------------|
B|---------------------------------------------------------------------------|
G|-----------------------8>-----------------9>-------------------------------|
D|-----6>----------------8>-----------------9>-------------------------------|
A|-----6>----------------6>-----------------7>-------------------------------|
E|-----4>--------------------------------------------------------------------|
   I'm fading away here, what I got to do to make you see
e|---------------------------------------------------------------------------|
B|---------------------------------------------------------------------------|
G|-----11>-------------9>----------------------------------------------------|
D|-----11>-------------9>----------4#----------------------------------------|
A|------9>-------------7>----------4#----------------------------------------|
E|---------------------------------2#----------------------------------------|
   My girlfriend is a wannabe, And she wants to be

e|---------------------------------------------------------------------------|
B|---------------------------------------------------------------------------|
G|-4>------------------------------------------------------------------------|
D|-4>------------------4>----------------------------------------------------|
A|-2>------------------4>----------------------------------------------------|
E|---------------------2>----------------------------------------------------|
   Me im not jokin she wont stop provoking me
e|---------------------------------------------------------------------------|
B|---------------------------------------------------------------------------|
G|-----------------------8>-----------------9>-------------------------------|
D|-----6>----------------8>-----------------9>-------------------------------|
A|-----6>----------------6>-----------------7>-------------------------------|
E|-----4>--------------------------------------------------------------------|
       im goin under     what i gotta do to make you see
e|---------------------------------------------------------------------------|
B|---------------------------------------------------------------------------|
G|-----11>-------------9>----------------------------------------------------|
D|-----11>-------------9>----------4#----------------------------------------|
A|------9>-------------7>----------4#----------------------------------------|
E|---------------------------------2#----------------------------------------|
   My girlfriend is a wannabe, And she wants to be

e|---------------------------------------------------------------------------|
B|---------------------------------------------------------------------------|
G|-------------------------------------7---6---------------------------------|
D|-4#------------------4#--------------7-7-6-7-------------------------------|
A|-4#------------------4#--------------5-7-4-7-------------------------------|
E|-2#------------------2#----------------5---5-------------------------------|
   She wants to be     She wants to be meeeeeeeeeeee

| #   hold strings
| >   continuous strumming
|p.m  palm mute
| /   slide up
| \   slide down
| h   hammer-on
| p   pull-off
| ~   vibrato
| +   harmonic
| x   Mute note

hope ya'll like seen as theres no other decent tabs for this song, big shout 
out to louise, mike, kev, brindle, steph, lisa, amy, collette, gill an any
one else i mighta 4got lol :p enjoy :p 

:::---Jay Lee---:::
===============================================================================
Comments