Busted - Peaches Chords & Tabs

 

Peaches Chords & Tabs

Busted Chords & Tabs

Version: 3 Type: Tab 0 ratings
1 star 2 stars 3 stars 4 stars 5 stars
comments

Peaches Tab

-------------------------------------------------------------------------------
			     PEACHES - Busted
-------------------------------------------------------------------------------
Tabbed by:Tom Lewis
Email:tom_lewis_10@hotmail.com

Tuning: Normal
Intro chord (guitar 2)

e|-----------------------------------------------------------------------------|
B|-----------------------------------------------------------------------------|
G|-----------------------------------------------------------------------------|
D|--11-------------------------------------------------------------------------|
A|--11-------------------------------------------------------------------------|
E|--9-------Repeat according to timing-----------------------------------------|

Intro riff (guitar 1)

e|-----------------------------------------------------------------------------|
B|-----------------------------------------------------------------------------|
G|-----------------------------------------------------------------------------|
D|-----------------------------------------------------------------------------|
A|--9---9---9-9---8---8---6---6---8---6----------------------------------------|
E|-----------------------------------------9-----------------------------------|

e|---------------------------------------------------------------------------|
B|---------------------------------------------------------------------------|
G|---------------------------------------------------------------------------|
D|----8---8-8----6---6-------------------------------------------------------|
A|-9---------------------6---6--8-6------------------------------------------|
E|-------------------------------------9-----------Chords mirror this riff---|

Chorus
[ Tab from: http://www.guitartabs.cc/tabs/b/busted/peaches_tab_ver_3.html ]
e|-----------------------------------------------------------------------------|
B|-----------------------------------------------------------------------------|
G|----------2--2--2--2---------------------------------------------------------|
D|---2--2---2--2--2--2-----x 3  then...---6------------------------------------|
A|---2--2---0--0--0--0--------------------6----x 8 then repeat-----------------|
E|---0--0---------------------------------4------------------------------------|

When they say "millions of peaches" and there's strumming:


e|-----------------------------------------------------------------------------|
B|-----------------------------------------------------------------------------|
G|---6--------4-------3---------4----------------------------------------------|
D|---6--x 3---4--x 5--3---x 3---4--x 5-----------------------------------------|
A|---4--------2-------1---------2----------------------------------------------|
E|-----------------------------------------------------------------------------|

When they stop singing, guitar 2 plays

e|---------------------------------------------------------------------------|
B|--6-6-6--4-4-4-4-4-3-3-3-4-4-4-4-------------------------------------------|
G|---------------------------------------------------------------------------|
D|---------------------------------------------------------------------------|
A|---------------------------------------------------------------------------|
E|---------------------------------------------------------------------------|

Final chord:

e|-----------------------------------------------------------------------------|
B|-----------------------------------------------------------------------------|
G|--6-/-0----------------------------------------------------------------------|
D|--6-/-0----------------------------------------------------------------------|
A|--4-/-0----------------------------------------------------------------------|
E|-----------------------------------------------------------------------------|
You can work out the timing. Buy the singles, all the b-sides are awesome!
Comments