Busted - Over Now Chords & Tabs

 

Over Now Chords & Tabs

Busted Chords & Tabs

Version: 5 Type: Tab 0 ratings
1 star 2 stars 3 stars 4 stars 5 stars
comments

Over Now Tab

Intro & Verses

e|---------------------------|---------------------------|
b|---------------------------|---------------------------|
g|--------9--8---------8--9--|--------9--8--------8--9---|
d|-----9------------9--------|-----9-----------9---------|
a|--7------------------------|--7------------------------|
E|---------------------------|---------------------------|

e|---------------------------|---------------------------|
b|---------------------------|-----------0---------------|
g|--------2--1---------------|-----1--2--------2--1------|
d|-----2--------------1h2p1--|-----------------------2---|
a|--0--------------2---------|--0------------------------|
E|---------------------------|---------------------------|

Pre-chorus

e|---------------------------|---------------------------|
b|---------------------------|---------------------------|
g|---------------------------|---------------------------|
d|-----6---------6-----6-----|-----4---------4------4----|
a|--4-------4--------4-------|--2-------2---------2------|
E|---------------------------|---------------------------|

                                VV on second time can play A chord here VV
e|---------------------------|---------------------------|
b|---------------------------|---------------------------|
g|---------------------------|---------------------------|
d|-----2---------2-----2-----|-----2---------2-----------|
a|--0-------0--------0-------|--0-------0---------0h2----|
E|---------------------------|---------------------------|

Chorus
[ Tab from: http://www.guitartabs.cc/tabs/b/busted/over_now_tab_ver_5.html ]
e|------------------|--------------------|------------|--------------|
b|------------------|--------------------|------------|--------------|
g|------------------|--4----4-----4--2-2-|-2-----2----|-2---2---2-0--|
d|--2----2-------2--|--4----4-----4--2-2-|-2-----2----|-2---2---2-0--|
a|--2----2-------2--|--2----2-----2--0-0-|-0-----0----|-0---0---0-0--|
E|--0----0-------0--|--------------------|------------|--------------|

play three times then....

e|------------------|------------------|----------------|-0---0---------|
b|------------------|------------------|----------------|-0---0---------|
g|--6----6-------6--|--4----4-----4--4-|-2--2---2-2--0--|-2---2---------|
d|--6----6-------6--|--4----4-----4--4-|-2--2---2-2--0--|-2---2---------|
a|--4----4-------4--|--2----2-----2--2-|-0--0---0-0--0--|-0---0---------|
E|------------------|------------------|----------------|---------------|

back to verse, chorus again then....

Bridge/Interlude
e|--0--0--0---0---0--0--0--|--0--0--0---0--0--0--|
b|--0--0--0---0---0--0--0--|--0--0--0---0--0--0--|
g|--6--6--6---6---6--6--6--|--2--2--2---2--2--2--|
d|--6--6--6---6---6--6--6--|--2--2--2---2--2--2--|
a|--4--4--4---4---4--4--4--|--0--0--0---0--0--0--|
E|-------------------------|---------------------|

e|--0--0--0---0---0--0--0--|--0--0--0---0--0--0--|
b|--0--0--0---0---0--0--0--|--0--0--0---0--0--0--|
g|--1--1--1---1---1--1--1--|--4--4--4---4--4--4--|
d|--2--2--2---2---2--2--2--|--4--4--4---4--4--4--|
a|--2--2--2---2---2--2--2--|--2--2--2---2--2--2--|
E|--0--0--0---0---0--0--0--|---------------------|

play twice then back to chorus then intro ending on

e|--0--|
b|--0--|
g|--9--|
d|--9--|
a|--7--|
E|--0--|
Comments