Busted - Over Now Chords & Tabs

 

Over Now Chords & Tabs

Busted Chords & Tabs

Version: 4 Type: Tab 0 ratings
1 star 2 stars 3 stars 4 stars 5 stars
comments

Over Now Tab

This is a good-cry-along song, now that busted is gone
I hope you all enjoy it
JB and MW and CS rox!
Ooo.. again, this is my first tab, so excuse the crazy lines, cause I'm new at this!

INTRO:
E|------------------|
B|5----5--4-----4--5|
G|--4--------4------|   
D|------------------|
A|------------------|
E|------------------|

E|------------------|
B|5----5--4-----4--5|
G|--4--------4------|   
D|------------------|
A|------------------|
E|------------------|


E|-------------------------------------------|
B|---------------------------------0---------|
G|-------2----1----2---1---1---2-------2----1|
D|----2----------2---------------------------|       
A|0------------------------------------------|
E|-------------------------------------------|

Play both for intro and the whole verse 1 until "If that's possible I think.."

Chorus is keys as usual

Verse 2:

Two days gone 
E|------------------|
B|5----5----5----5--|
G|--4----4----4----4|   
D|------------------|
A|------------------|
I'm alright
E|------------------|
B|4----4----4----4--|
G|--4----4----4----4|   
D|------------------|
A|------------------|
E|------------------|
But you can't 
E|------------------|
B|2----2----2----2--|
G|--4----4----4----4|   
D|------------------|
A|------------------|
E|------------------|
Sleep at night
E|------------------|
B|4----4----4----4--|
G|--4----4----4----4|   
D|------------------|
A|------------------|
E|------------------|

repeat that for 
"What is it that you don't like
Cause I'm happy now"

I was playing with your head
E|4----4----4----4--|
B|--0----0----0----0|   
G|------------------|
D|------------------|
A|------------------|
E|------------------|

And I close the door
E|2----2----2----2--|
B|--0----0----0----0|   
G|------------------|
D|------------------|
A|------------------|
E|------------------|
[ Tab from: http://www.guitartabs.cc/tabs/b/busted/over_now_tab_ver_4.html ]
E|0----0----0----0--|
B|--0----0----0----0|   
G|------------------|
D|------------------|
A|------------------|
E|------------------|

I was kidding when I said
E|0----0----0----0--|
B|--0----0----0----0|   
G|------------------|
D|------------------|
A|------------------|
E|------------------|

I love you more
E|4----4----4----4--|
B|--0----0----0----0|   
G|------------------|
D|------------------|
A|------------------|
E|------------------|

E|2----2----2----2--|
B|--0----0----0----0|   
G|------------------|
D|------------------|
A|------------------|
E|------------------|

E|0----0----0----0--|
B|--0----0----0----0|   
G|------------------|
D|------------------|
A|------------------|
E|------------------|

E|0----0----0----0--|
B|--0----0----0----0|   
G|------------------|
D|------------------|
A|------------------|
E|------------------|

Chorus as usual again

Solo:
E|4----4----4----4----7----7----7----7----7----7--|
B|--0----0----0----0----0----0----0----0----0----0|
G|------------------------------------------------|
D|------------------------------------------------|
A|------------------------------------------------|
E|------------------------------------------------|

E|5----4----4----4--5----4---|
B|--0----0----0--------0-----|
G|---------------------------|
D|---------------------------|
A|---------------------------|
E|---------------------------|

E|4----4----4----4----4----4----4----4---|
B|--0----0----0----0----0----0----0----0-|  
G|---------------------------------------|
D|---------------------------------------|
A|---------------------------------------|
E|---------------------------------------|

E|2----2----2----2----2----2----2----2|
B|------------------------------------|
G|------------------------------------|
D|------------------------------------|
A|------------------------------------|
E|------------------------------------|

E|2----2----2----2----2----4----2----0|
B|------------------------------------|
G|------------------------------------|
D|------------------------------------|
A|------------------------------------|
E|------------------------------------|
Comments