Busted - Over Now Chords & Tabs

 

Over Now Chords & Tabs

Busted Chords & Tabs

Version: 3 Type: Tab 0 ratings
1 star 2 stars 3 stars 4 stars 5 stars
comments

Over Now Tab

tabbed by: dean snell

its still a cool song though,
heres the tab for fake!!

tuning:Eadgbe

intro; guitar 1


e|-------------------------------------------------------------------------|
B|-------------------------------------------------------------------------|
G|-----5----5--------3-----3--------5-----5-----5--------3--3h5p3p0--------|
D|--3-3-3-2---2-0--0---0-0---0----3---3-2---2-0---2-0--0---0-------3h5p3p0-|
A|-----------------------------3-------------------------------------------|
E|-------------------------------------------------------------------------|

 intro: guitar 2 
e|-------------------------------------------------------------------------|
B|-------------------------------------------------------------------------|
G|-------------------------------------------------------------------------|
D|----------5-5-5-----3-3-3-3-3-3-3-3----------5-5-5---3-3-3-3-3-3-3-3----|
A|--3-3-3-0-3-3-3-0---1-1-1-1-1-1-1-0--3-3-3-0-3-3-3-0-1-1-1-1-1-1-1-0----|
E|--1-1-1------------------------------1-1-1------------------------------|
p.m ------------------------------------------------------------------
verse 1 boath guitars:
(do this twice)

e|-------------------------------------------------------------------------|
B|-------------------------------------------------------------------------|
G|-------------------------------------------------------------------------|
D|----------5-5-5-----3-3-3-0-3-0-3-0----------5-5-5------------3---3------|
A|--3-3-3-0-3-3-3-0---1-1-1-0-1-0-1-0--3-3-3-0-3-3-3-0--5-5-5-0-1-0-1-0----|
E|--1-1-1------------------------------1-1-1------------3-3-3--------------|
p.m --------------------------------------------------------------------

bridge:


e|-------------------------------------------------------------------------|
B|-------------------------------------------------------------------------|
G|---------------------------------------------------------101010-10101010-|
D|---------------------------------------------------------x-x-------------|
A|-7-7-7-7-7-7-7-7-8-8-8-8-8-8-8-8-7-7-7-7-7-7-7-7-8-8-8-8-8-8-8--8-8-8-8--|
E|-5-5-5-5-5-5-5-5-6-6-6-6-6-6-6-6-5-5-5-5-5-5-5-5-6-6-6-6-----------------|

chorus: boath guitares

e|-------------------------------------------------------------------------|
B|-------------------------------------------------------------------------|
G|---1010-10101010-5-5--5-5-5-5--7-7--7-7-7-7--3-3--3-3-3-3---x3-----------|
D|---1010-10101010-5-5--5-5-5-5--7-7--7-7-7-7--3-3--3-3-3-3----------------|
A|---8-8--8-8-8-8--3-3--3-3-3-3--5-5--5-5-5-5--1-1--1-1-1-1----------------|
E|-------------------------------------------------------------------------|

e|-------------------------------------------------------------------------|
B|-------------------------------------------------------------------------|
G|--7-7--7-7-7-7--5-5--5-5-5-5--3-3--3-3-3-3-----3-------------------------|
D|--7-7--7-7-7-7--5-5--5-5-5-5--3-3--3-3-3-3-----3-------------------------|
A|--5-5--5-5-5-5--3-3--3-3-3-3--1-1--1-1-1-1-----1-------------------------|
E|-------------------------------------------------------------------------|
[ Tab from: http://www.guitartabs.cc/tabs/b/busted/over_now_tab_ver_3.html ]
e|-------------------------------------------------------------------------|
B|-------------------------------------------------------------------------|
G|-10---10---10-10-10-10----10---10---10-10-10-10--------------------------|
D|-10---10---10-10-10-10----10---10---10-10-10-10----6-6-6-6-6-6-6-6-------|
A|--8----8----8--8--8--8-----8----8----8--8--8--8----6-6-6-6-6-6-6-6-------|
E|---------------------------------------------------4-4-4-4-4-4-4-4-------|
                                                                 
e|-------------------------------------------------------------------------|
B|-------------------------------------------------------------------------|
G|-----------------------------------------------------1111111111111111----|
D|---13-13-13-13-13-13-13-13---------------------------1111111111111111----|
A|---13-13-13-13-13-13-13-13--15-15-15-15-15-15-15-15--9-9-9-9-9-9-9-9-----|
E|---11-11-11-11-11-11-11-11--13-13-13-13-13-13-13-13----------------------|
 
                                                        them numbers are 11
                                                        not 1


e|-------------------------------------------------------------------------|
B|-------------------------------------------------------------------------|
G|-------------------------------------------------------------------------|
D|--6-6-6-6-6-6-6-6---13-13-13-13-13-13-13-13---15-\-13-\11----------------|
A|--6-6-6-6-6-6-6-6---13-13-13-13-13-13-13-13---15-\-13-\11----------------|
E|--4-4-4-4-4-4-4-4---11-11-11-11-11-11-11-11---13-\-11-\-9----------------|
 do the thired verse twice!! then and the second time round (near the end of the 3rd
verse) (be with me, gonna wanna be with me.......) you do this...                                   
e|-------------------------------------------------------------------------|
B|-------------------------------------------------------------------------|
G|-------------------------------------------------------------------------|
D|-------------------------------------------------------------------------|
A|-------------------------------------------------------------------------|
E|--13-\-11-\-9--9-9-9-9------13-\-11-\-9----9-9-9-9------13-\-11-\-9------|
    
    be  with me gonna wanna  be   with me   gonna wanna  be with  meeee..


e|---------------------------|
B|---------------------------|
G|--7--------7---------7-----|    x2
D|--8--------8---------8-----|
A|--5--------5---------5-----|
E|---------------------------|

e|-----------------------------|
B|-----------------------------|
G|---3-3-3---3-5-5-5-----------|
D|---3-3-3---3-5-5-5-----------|
A|---1-1-1---1-3-3-3-----------|
E|-----------------------------|
   yeah_________


e|-------------------------------------------------------------------------|
B|-------------------------------------------------------------------------|
G|------------5-5------------------5-5-----------------6-6-----------------|
D|-------5-5-------5-5--------5-5-------5-5-------7-7-------7-7------------|
A|--7-7------------------7-7-----------------8-8---------------------------|
E|-------------------------------------------------------------------------|

verse 4

e|-------------------------------------------------------------------------|
B|-------------------------------------------------------------------------|
G|----------6-6--------------------5-5----------------5-5------------------|
D|------7-7------7-7----------5-5-------5-5-------5-5-----5-5--------------|
A|--8-8------------------7-7------------------7-7--------------------------|
E|-------------------------------------------------------------------------|
                        

e|--6-6-6-6-6-6------------------------------------------------------------|
B|--6-6-6-6-6-6------------------------------------------------------------|
G|--x-x-x-x-x-x------------------------------------------------------------|
D|--8-8-8-8-8-8------------------------------------------------------------|
A|----------------8--------------------------------------------------------|
E|-------------------------------------------------------------------------|
                 (rake)


chorus x 3

   order 

intro x1
verse 1 x1
bridge x1
chorus x1
intro x1
verse 2 x 1
bridge x1
chorus x1 
verse 3 x2 but with the added bid on the end (be with me bit)
instrunental x1
verse 4 x1
chorus x3
Comments