Busted - Crashed The Wedding Chords & Tabs

 

Crashed The Wedding Chords & Tabs

Busted Chords & Tabs

Version: 1 Type: Bass Tab 0 ratings
1 star 2 stars 3 stars 4 stars 5 stars
comments

Crashed The Wedding Bass Tab

this is one of my favourite songs so here it is rock p . s busted rock!!!

song name - crashed the wedding
band name - busted
album - a present for every one

Intro
g-----------------------------------------------------------------|
d-----------------------------------------------------------------|
a---------4-4-4-4-6-6-6-6-4-4-4-4---------------------------------|
e-4-4-4-4---------------------------------------------------------|
[ Tab from: http://www.guitartabs.cc/tabs/b/busted/crashed_the_wedding_btab.html ]
Pre Chorus
        she's mine
g-----------------------------------------------------------------|
d-----------------------------------------------------------------|
a----6-6-------------4-4------------------------------------------|
e-----------------------------------------------------------------|

Chorus
g------------------------------------------------------------------|
d------------------------------------------------------------------|
a---------4-4-4-4----------4-4-4-4--------4-4-4-4-6-6-6-6-4-4-4-4--|
e-4-4-4-4---------1-1-1-1----------4-4-4-4-------------------------|
Comments