Business - Takers And Users Chords & Tabs

 

Takers And Users Chords & Tabs

Business Chords & Tabs

Version: 1 Type: Tab 0 ratings
1 star 2 stars 3 stars 4 stars 5 stars
comments

Takers And Users Tab

#----------------------------------PLEASE NOTE---------------------------------#
#This file is the author's own work and represents their interpretation of the #
#song. You may only use this file for private study, scholarship, or research. #
#------------------------------------------------------------------------------#
Tab for   : TAKERS AND USERS
     by   : THE BUSINESS

date      : 13/2/2002

tabbed by : André Hager
	  : Germany
	  : andre.hager@gmx.de


All right guys, thats all! Maybe there are some errors in rhythm, but it
seems all ok. If you find errors please send me a mail.

Here we go!


Intro: [2 times; second time with bass]

   1   2   3   4    1   2   3   4    1   2   3   4    1   2   3   4    
E-|----------------|----------------|----------------|----------------|
B-|7-8-5---5---5-8-|7-8-5---5---5-8-|7-7-8---7-8---7-|8-7-------------|
G-|----------------|----------------|----------------|------7---------|
D-|----------------|----------------|----------------|----------------|
A-|----------------|----------------|----------------|----------------|
E-|----------------|----------------|----------------|----------------|

(bassline)
G-|----------------|----------------|----------------|----------------|
D-|----------------|5---7-----------|----------------|5---7-----------|
A-|5-------5-------|--------5-------|5--------5------|--------5-------|
E-|----------------|----------------|----------------|----------------|


Verse: [once]

   1   2   3   4    1   2   3   4    1   2   3   4    1   2   3   4    
E-|----------------|----------------|----------------|----------------|
B-|----------------|----------------|----------------|----------------|
G-|7~--7~--7~--7~--|----7~--7~--7~--|7~--7~--7~--7~--|----7~--7~--7~--|
D-|7~--7~--7~--7~--|5~--7~--7~--7~--|7~--7~--7~--7~--|5~--7~--7~--7~--|
A-|5~--5~--5~--5~--|5~--5~--5~--5~--|5~--5~--5~--5~--|5~--5~--5~--5~--|
E-|----------------|3~--------------|----------------|3~--------------|

(bassline)
G-|----------------|----------------|----------------|----------------|
D-|----------------|--4-5-7---4-5-7-|----------------|--4-5-7---4-5-7-|
A-|5---5---5---5---|5-------5-------|5---5---5---5---|5-------5-------|
E-|----------------|----------------|----------------|----------------|


Chorus: [once]

   1   2   3   4    1   2   3   4    1   2   3   4    1   2   3   4    
E-|----------------|----------------|----------------|----------------|
B-|----------------|----------------|----------------|----------------|
G-|--------7---5---|--------7---7---|--------7---7---|--------7---7---|
D-|5---5---5---5---|5---5---7---7---|5---5---7---7---|7---7---7---7---|
A-|5---5---5---5---|5---5---5---5---|5---5---5---5---|7---7---5---5---|
E-|3---3-----------|3---3-----------|3---3-----------|5---5-----------|
[ Tab from: http://www.guitartabs.cc/tabs/b/business/takers_and_users_tab.html ]
(bassline)
G-|----------------|----------------|----------------|----------------|
D-|--------5-7-5---|-------5-7-5----|-------5-7-5----|--------7-------|
A-|5---5---------5-|5--5---------5--|5--5----------5-|5---5-----------|
E-|----------------|----------------|----------------|----------------|


[Verse]

[Chorus]

[Intro with Verse-Chords]


Bridge:

(solo)
   1   2   3   4    1   2   3   4    1   2   3   4    1   2   3   4    
E-|----------------|----5-----------|----------------|----5-----------|
B-|--------7-------|8---------------|--------7-------|8---------------|
G-|7---------------|--------7-------|7---------------|--------7-------|
D-|----------------|----------------|----------------|----------------|
A-|----------------|----------------|----------------|----------------|
E-|----------------|----------------|----------------|----------------|

(backchords)
E-|----------------|----------------|----------------|----------------|
B-|----------------|----------------|----------------|----------------|
G-|7~~~~~~~7~~~~~~~|--------7~~~~~~~|7~~~~~~~~7~~~~~~|--------7~~~~~~~|
D-|7~~~~~~~7~~~~~~~|5~~~7~~~7~~~~~~~|7~~~~~~~~7~~~~~~|5~~~7~~~7~~~~~~~|
A-|5~~~~~~~5~~~~~~~|5~~~7~~~5~~~~~~~|5~~~~~~~~5~~~~~~|5~~~7~~~5~~~~~~~|
E-|----------------|3~~~5~~~--------|----------------|3~~~5~~~--------|

(bassline)
G-|----------------|----------------|----------------|----------------|
D-|--------4-------|5---7-----------|---------4------|5---7-----------|
A-|5---------------|--------5-------|5---------------|--------5-------|
E-|----------------|----------------|----------------|----------------|



[Verse over bridge without solo and other bassline]

(bassline)
G-|----------------|----------------|----------------|----------------|
D-|----------------|5---7-----------|----------------|5---7-----------|
A-|5-------5-------|--------5-------|5--------5------|--------5-------|
E-|----------------|----------------|----------------|----------------|


[Chorus: twice]

[Intro with Verse-Chords]


[End]

   1   2   3   4    1   2   3   4    1   2   3   4    1   2   3   4    
E-|----------------|----------------|----------------|--------5~~~----|
B-|7-8-5---5---5-8-|7-8-5---5---5-8-|7-7-8---7-8---7-|7~~~~~~~--------|
G-|----------------|----------------|----------------|------------7~~~|
D-|----------------|----------------|----------------|----------------|
A-|----------------|----------------|----------------|----------------|
E-|----------------|----------------|----------------|----------------|

(bassline)
G-|----------------|----------------|----------------|----------------|
D-|----------------|5---7-----------|----------------|4~~~~~~~7~~~----|
A-|5-------5-------|--------5-------|5--------5------|------------5~~~|
E-|----------------|----------------|----------------|----------------|

Comments