Business - Suburban Rebels Chords & Tabs

 

Suburban Rebels Chords & Tabs

Business Chords & Tabs

Version: 1 Type: Tab 0 ratings
1 star 2 stars 3 stars 4 stars 5 stars
comments

Suburban Rebels Tab

Band: The Business
Song: Suburban Rebels


tabbed by jam9383@yahoo.com


Verse

e---------------------------------------------------------------------|
B---------------------------------------------------------------------|
G--------6--6--4--4--8--8--6------------------------------------------|
D--4--4--6--6--4--4--8--8--6------------------------------------------|
A--4--4--4--4--2--2--6--6--4------------------------------------------|
E--2--2---------------------------------------------------------------|

Chorus
[ Tab from: http://www.guitartabs.cc/tabs/b/business/suburban_rebels_tab.html ]
e---------------------------------------------------------------------|
B---------------------------------------------------------------------|
G--12--12--12-----------------------9-9-------------------------------|
D--12--12--12-12-12-12--10-10-10-10-9-9--12---------------------------|
A--10--10--10-12-12-12--10-10-10-10-7-7--12---------------------------|
E-------------10-10-10--8--8--8--8-------10---------------------------|

Bridge

e---------------------------------------------------------------------|
B---------------------------------------------------------------------|
G---8-8-8---6-6-6-8-10-11---11--11------------------------------------|
D---8-8-8---6-6-6-8-10-11---11--11------------------------------------|
A---6-6-6---4-4-4-6-8-9-----9----9------------------------------------|
E---------------------------------------------------------------------|

Background guitar

e---------------------------------------------------------------------|
B--8p7p5h7-8-7-8-------------5p3p2h5--5-3--5-3------------------------|
G---------------------------------------------------------------------|
D---------------------------------------------------------------------|
A---------------------------------------------------------------------|
E---------------------------------------------------------------------|

any comments/corrections contact me, please rate
Comments