Business - Hardcore Hooligan Chords & Tabs

 

Hardcore Hooligan Chords & Tabs

Business Chords & Tabs

Version: 1 Type: Tab

Hardcore Hooligan Tab

Intro / Outro:
| -------------------------- |
| -------------------------- |
| -------------------------- |
| ----------------------5-5- |
| 5--5--5-5-5--5-5-5-5--3-3- |
| 3--3--3-3-3--3-3-3-3------ |
[ Tab from: http://www.guitartabs.cc/tabs/b/business/hardcore_hooligan_tab.html ]
Chorus:
| ------------------ |
| ------------------ |
| --------*-*-*-*-*- |
| -----3--*-*-*-*-*- |
| 5--5-1--*-*-*-*-*- |
| 3--3-------------- |

Verse:
| --------------- |
| --------------- |
| --------------- |
| ----3--5-5-3-5- |
| 5-x-1--3-3-1-3- |
| 3-x------------ |


Order: Intro
       Chorus
       Verse
       Chorus
       Verse
       Outro