Bush - Warm Machine Chords & Tabs

 

Warm Machine Chords & Tabs

Bush Chords & Tabs

Version: 3 Type: Tab 0 ratings
1 star 2 stars 3 stars 4 stars 5 stars
comments

Warm Machine Tab

Bush, Warm Machine
John, john_spartans@hotmail.com
This is my first tab and it is really accurate except for maybe missing a stroke or something, but other than that, there's nothing wrong with it.  It is a lot more accurate than the other version I think.


Verses/solo
----------------------------------------------------
-----------------------(vibrato)--------------------
-10---10---10\9-9-9-9-9/14--14--14-14\12-12-12-12-12
----------------------------------------------------
----------------------------------------------------
----------------------------------------------------
When Gavin starts singing, just play the first two notes, then play the whole thing.(repeat that over again until the chorus.
[ Tab from: http://www.guitartabs.cc/tabs/b/bush/warm_machine_tab_ver_3.html ]
Chorus
----------------------------------------------------
---------------(heavy distortion)-------------------
----------------------------------------------------
-7--7-x-x-x-3--3-3-3-3---5--5-x-x-x-5-5-5-5-5-------
-7--7-x-x-x-3--3-3-3-3---5--5-x-x-x-5-5-5-5-5-------
-5--5-x-x-x-1--1-1-1-1---3--3-x-x-x-3-3-3-3-3-------

----------------------------------------------------
----------------------------------------------------
----------------------------------------------------
-7--7-x-x-x-3--3-3-3-3---5--5-x-x-x-3-2-3-2---------
-7--7-x-x-x-3--3-3-3-3---5--5-x-x-x-3-2-3-2---------
-5--5-x-x-x-1--1-1-1-1---3--3-x-x-x-1-0-1-0---------
You do this part every time Gavin sings "such a warm machine"

interlude
----------------------------------------------------
---------------------------(vibrato)----------------
-9-----7-----10---------------(play twice)----------
----------------------------------------------------
----------------------------------------------------
----------------------------------------------------

That is all of this song.  If you need anymore assistance, or would like me to make another tabby any band, email me at john_spartans@hotmail.com

Comments